Song name
# A B C D E F G H I J K L M N O P Q R S T U V W X Y Z

Misc Unsigned Bands - Versus Terminus - Unknown tab

Help us improve GuitareTab! Take a short survey!
intro solo
e----------------------------|
B----------------------------|
G----------------------------|
D----------------------------|
A--9--xx-7--xx-5--xx-3--\5-7-|
E--7--xx-5--xx-3--xx-1--\3-5-|

solo
e--------------------------------------------------|
B-9v----------7v----------------------9-7-7h9/5v\\-|
G----7-9-10-9-----7-9-10-9-10v--7-9-10-------------|
D--------------------------------------------------|
A--------------------------------------------------|
E--------------------------------------------------|

e-------------------------------------------------|
B-\9-10-9h10/7v--7-8-7h8/5v--5-6-5h6/3v-4-2-5////-|
G-------------------------------------------------|
D-------------------------------------------------|
A-------------------------------------------------|
E-------------------------------------------------|

e----------------------------------|
B-171513--171513--171513--16--16---|
G-------15------15------15--15--16-|
D----------------------------------|
A----------------------------------|
E----------------------------------|

e------------------------------------|
b-171513--171513--171513--16--16-17v-|
G-------15------15------15--15-------|
D------------------------------------|
A------------------------------------|
E------------------------------------|

e--------------------------------------------18p-18~~-|
B16-16-16-16-16161616161616161616161616161616---------|
G-----------------------------------------------------|
D-----------------------------------------------------|
A-----------------------------------------------------|
E-----------------------------------------------------|

e-17-17-17-16h1716h1716h1716h1716h1716h1716h1716h1716h1716h1716----|
b--------------------------------------------------------------18--|v
G------------------------------------------------------------------|
D------------------------------------------------------------------|
A------------------------------------------------------------------|
E------------------------------------------------------------------|

e----------------------------------------------------------------------------|
B-171717151515131313121212-171717151515131313121212-171717151515131313121212-|
G----------------------------------------------------------------------------|
D----------------------------------------------------------------------------|
A----------------------------------------------------------------------------|
E----------------------------------------------------------------------------|

e----------------------------------------------16\17--|p
B-11p--11-11-11111111111111111111111111111111---------|
G--------------------------------------------14-------|
D-----------------------------------------------------|
A-----------------------------------------------------|
E-----------------------------------------------------|

e-------------------------------------|
B-171513--171513--171513--16-12-16-12-|
G-------15------15------15------------|
D-------------------------------------|
A-------------------------------------|
E-------------------------------------|

e------------------------------16--|p
B-171513--171513--171513--16-15----|
G-------15------15------15---------|
D----------------------------------|
A----------------------------------|
E----------------------------------|

e-9v----------7v---------------------7-5-5h65/3--|
B-----7-9-10-9----7-9-10-7-9v--7-9-10------------|
G------------------------------------------------|
D------------------------------------------------|
A------------------------------------------------|
E------------------------------------------------|

e/9-10-910-7--7-8-78-5--5-6-56-3-4-2-5-3pv\\\----|
B------------------------------------------------|
G------------------------------------------------|
D------------------------------------------------|
A------------------------------------------------|
E------------------------------------------------|

ok dude..
thats all..
Related for Versus Terminus - Unknown tab