Song name
# A B C D E F G H I J K L M N O P Q R S T U V W X Y Z

Misc Unsigned Bands - Grinpise - Giving Up December tab

GRINPISE
Giving Up December
Tuning: Drop D

...(//_x) \m/
add us on friendster / myspace / purevolume

www.girnpisemusic.com (online on the last week of February 2007)

email: grinpiseband@yahoo.com

*Tuning: Drop D*

INTRO
Guitar 1
e |-----------------------------------------------------------------------|
B |-----------------------------------------------------------------------|
G |------------------------------------11------10------6------5------6----|
D |--11-------10-------6------4--------11------11------6------6------6----|
A |--11-(x9)--11-(9x)--6-(9x)-4-(9x)----x-(9x)--x-(9x)-x-(9x)-x-(3x)-x----|
D |--8--------8--------4------4--------8-------8-------4------4------4----|

Guitar 2
e |-----------------------------------------------------------------------|
B |-----------------------------------------------------------------------|
G |-----------------------------------------------------------------------|
D |--8-------11-------6-------4-------8-------6-------4-------6-----------|
A |--8-(9x)--11-(9x)--6-(9x)--4-(9x)--8-(9x)--6-(9x)--4-(9x)--6-(4x)------|
D |--8-------11-------6-------4-------8-------6-------4-------6-----------|




Tap to rate this tab
# A B C D E F G H I J K L M N O P Q R S T U V W X Y Z