Song name
# A B C D E F G H I J K L M N O P Q R S T U V W X Y Z

Misc Unsigned Bands - Adex - Nonviolence tab

e|----------------------------------------------------|
b|-----------------10---12--13--12----10---12--13--12-|
g|-(9h11-12x7)x2--9---11--11--11-----9---11--11--11---|
d|----------------------------------------------------|X2
a|----------------------------------------------------|
e|----------------------------------------------------|

            mabilis na picking po d2 na part     
                                 
e|-------10-(12x6-14x6-15x6-14x6)x3-|
b|-10h12----------------------------|
g|----------------------------------|
d|----------------------------------|
a|----------------------------------|
e|----------------------------------|


e|-12x2-10x2--------------------------------------10h12|
b|-----------12x2-10x2----------------------12h12------|
g|--------------------12x2-11x2-9x2-9h11-12------------|
d|-----------------------------------------------------|
a|-----------------------------------------------------|
e|-----------------------------------------------------|


e|-(12x6-14x6-15x6-14x6)x3---17x6 15x2 -14x2-12x2-----|
b|----------------------------------------------------|
g|----------------------------------------------------|
d|----------------------------------------------------|
a|----------------------------------------------------|
e|----------------------------------------------------|


e|-0-0--12x2-10x2--------------------------------------------------|
b|---------------12x2-10x2-----------------------------------------|
g|------------------------12x2-11-9--------------------------------|
d|----------------------------------12x2-10x2----------------------|
a|--------------------------------------------12x2-10x2------------|
e|-----------------------------------------------------12x2-10-12~~|Let ring



Tap to rate this tab
 
# A B C D E F G H I J K L M N O P Q R S T U V W X Y Z