Song name
# A B C D E F G H I J K L M N O P Q R S T U V W X Y Z

Misc Unsigned Bands - Hazard - Vegetarian Pork tab

This is a great and ver simple song hope you enjoy it.


VERSE
E---------------------------------------------------------------|
B---------------------------------------------------------------|
G--------------------------------------5---5---5---5---7---7----|
D--------5----5--5---5---5---5--5--5--5---5---5---5---7---7---7-|
A-------5---5---5---5---5---5--5--5--3---3---3---3---5---5---7--|
E------3---3---3---3---3---3--3--3--------------------------5---|

CHORUS
E---------------------------------------------------------------|
B---------------------------------------------------------------|
G---------------4--4---4----------------------------------------|
D----3--3---3--4--4---4----5--5--5---4---4---4------------------|
A---3--3---3--2--2---2----5--5--5---4---4---4-------------------|
E--1--1---1--------------3--3--3---2---2---2--------------------|
Tap to rate this tab
# A B C D E F G H I J K L M N O P Q R S T U V W X Y Z