Song name
# A B C D E F G H I J K L M N O P Q R S T U V W X Y Z

Misc Unsigned Bands - No Thoughts - Complicated tab

this is only the rhythm guitar it is fairly easy but timing must be right.

VERSE/INTRO

e|--------------------------------|
B|--------------------------------|
G|--9------7------4-------2-------|
D|--9------7------4-------2-------|
A|--7------5------2-------0-------|
E|--------------------------------|
                                X4


CHORUS


|--------------------------------------|
|--------------------------------------|
|--9-9-9-9--5-5-5-5--------------------|
|--9-9-9-9--5-5-5-5--5-5-5-5--9-9-9-9--|
|--7-7-7-7--3-3-3-3--5-5-5-5--9-9-9-9--|
|--------------------3-3-3-3--7-7-7-7--|

VERSE 2


CHORUS


BREAKDOWN

|--------------------------------|
|--------------------------------|
|--9------7------4-------2-------|
|--9------7------4-------2-------|
|--7------5------2-------0-------|
|--------------------------------|
                                X2


VERSE 3


CHORUS


VERSE  4


BREAKDOWN


VERSE  5


CHORUS


VERSE/OUTRO
Tap to rate this tab
# A B C D E F G H I J K L M N O P Q R S T U V W X Y Z