Song name
# A B C D E F G H I J K L M N O P Q R S T U V W X Y Z

Misc Unsigned Bands - The Masturbats - Anne tab

-------------------------------------------------------------------------------
			     Anne - The Masturbats
-------------------------------------------------------------------------------
Tabbed by: The Masturbats
Email:www.myspace.com/themasturbats

Tuning: E A D G B e
 Intro- fast upbeats
e|-5-----------5-------------------------------------------------------------------------|
B|-5--9--7--9--5--9--7--9----------------------------------------------------------------|
G|-6--9--7--9--6--9--7--9----------------------------------------------------------------|
D|-7--9--7--9--7--9--7--9----------------------------------------------------------------|
A|-7--7--5--7--7--7--5--7----------------------------------------------------------------|
E|-5-----------5-------------------------------------------------------------------------|

Chorus- x4
e|-----------------------------------------------------------------------------------|
B|-----------------------------------------------------------------------------------|
G|-----------------------------------------------------------------------------------|
D|-7--9--12--14----------------------------------------------------------------------|
A|-7--9--12--14----------------------------------------------------------------------|
E|-5--7--10--12----------------------------------------------------------------------|

Verse- x4(slow upbeats)
e|-5------------------------------------------------------------------------------|
B|-5--7--9------------------------------------------------------------------------|
G|-6--7--9------------------------------------------------------------------------|
D|-7--7--9------------------------------------------------------------------------|
A|-7--5--7------------------------------------------------------------------------|
E|-5------------------------------------------------------------------------------|
Chorus- x4
e|-----------------------------------------------------------------------------------|
B|-----------------------------------------------------------------------------------|
G|-----------------------------------------------------------------------------------|
D|-7--9--12--14----------------------------------------------------------------------|
A|-7--9--12--14----------------------------------------------------------------------|
E|-5--7--10--12----------------------------------------------------------------------|

Verse- x4(slow upbeats)
e|-5------------------------------------------------------------------------------|
B|-5--7--9------------------------------------------------------------------------|
G|-6--7--9------------------------------------------------------------------------|
D|-7--7--9------------------------------------------------------------------------|
A|-7--5--7------------------------------------------------------------------------|
E|-5------------------------------------------------------------------------------|

Chorus- x4
e|-----------------------------------------------------------------------------------|
B|-----------------------------------------------------------------------------------|
G|-----------------------------------------------------------------------------------|
D|-7--9--12--14----------------------------------------------------------------------|
A|-7--9--12--14----------------------------------------------------------------------|
E|-5--7--10--12----------------------------------------------------------------------|

| /  slide up
| \  slide down
| h  hammer-on
| p  pull-off
| ~  vibrato
| +  harmonic
| x  Mute note
===============================================================================
Tap to rate this tab
# A B C D E F G H I J K L M N O P Q R S T U V W X Y Z