Song name
# A B C D E F G H I J K L M N O P Q R S T U V W X Y Z

Misc Unsigned Bands - International Conflict - Dont Know tab

I made this up while sitting on my butt.

/slide up
\slide down

intro/verse
|-------------------------------------------------------------|
|-------------------------------------------------------------|
|-------------------------------------------------------------|
|------4-----4----6-----6-----8------8----6-----6-----4-------|
|----4-----4----6-----6-----8------8-----6----6-----4---------|
|--2-----2----/4-----4----/6-----6-----\4---4-----2-----------|


chorus
|----------------------------------|
|----------------------------------|
|---------------8-----8------------|
|--8-----8------8-----8----6-----6-|
|--8-----8------6-----6----6-----6-|
|--6-----6-----------------4-----4-|


im still working on a solo and the ending
Tap to rate this tab
 
# A B C D E F G H I J K L M N O P Q R S T U V W X Y Z