Song name
# A B C D E F G H I J K L M N O P Q R S T U V W X Y Z

Misc Unsigned Bands - The Operation Md - Sayonara tab

Sayonara from the operation md. awesome new band and cool song

Intro/Chorus

e------------------------------------------------|
B------------------------------------------------|
G------------------------------555-333-----------|
D-55-4-333--55-4-333--55-4-333-555-333-----------|
A-55-4-333--55-4-333--55-4-333-333-111-----------|
E-33-2-111--33-2-111--33-2-111-------------------|

                 or
e------------------------------------------------|
B------------------------------------------------|
G------------------------------555-333-----------|
D-55-4-333--55-4-333--55-4-333-555-333-----------|
A-55-4-333--55-4-333--55-4-333-333-111-----------|
D-55-4-333--55-4-333--55-4-333-------------------|

Verse
e------------------------------------------------|  Do this once then strum
B------------------------------------------------|  the chords.
G----3-35-5---------3-310-105--------------------|
D-5-53-35-55-55--5-53-310-105--------------------|
A-5-51-13-35-55--5-51-18--8-3--------------------|
E-3-3------3-33--3-3-----------------------------|

Chorus
e------------------------------------------------|
B------------------------------------------------|
G------------------------------555-333-----------|
D-55-4-333--55-4-333--55-4-333-555-333-----------|
A-55-4-333--55-4-333--55-4-333-333-111-----------|
E-33-2-111--33-2-111--33-2-111-------------------|

Verse
e------------------------------------------------|  Do this once then strum
B------------------------------------------------|  the chords.
G----3-35-5---------3-310-105--------------------|
D-5-53-35-55-55--5-53-310-105--------------------|
A-5-51-13-35-55--5-51-18--8-3--------------------|
E-3-3------3-33--3-3-----------------------------|

Chorus
e------------------------------------------------|
B------------------------------------------------|
G------------------------------555-333-----------|
D-55-4-333--55-4-333--55-4-333-555-333-----------|
A-55-4-333--55-4-333--55-4-333-333-111-----------|
E-33-2-111--33-2-111--33-2-111-------------------|

solo
e-------------------------------------------------|
B-33-55-66-88-66-55-33-11-33-11-33-11-33-11-33-11-|
G-------------------------------------------------|
D-------------------------------------------------|
A-------------------------------------------------|
E-------------------------------------------------|

solo cont'd
e------------------------------------------------------|
B-33-55-66-88-66-55-33-11-33-55-66-88-1010-1313-151515-|
G------------------------------------------------------|
D------------------------------------------------------|
A------------------------------------------------------|
E------------------------------------------------------|

bass part
then
e--------------------|
B--------------------|
G--------------------|
D-55-55-55--55-55-55-|
A-55-55-55--55-55-55-|
E-33-33-33--33-33-33-|

Verse
e------------------------------------------------|  this time do the
B------------------------------------------------|  strumming once
G----3-35-5---------3-310-105--------------------|
D-5-53-35-55-55--5-53-310-105--------------------|
A-5-51-13-35-55--5-51-18--8-3--------------------|
E-3-3------3-33--3-3-----------------------------|

Chorus
e------------------------------------------------|
B------------------------------------------------|
G------------------------------555-333-----------|
D-55-4-333--55-4-333--55-4-333-555-333-----------|
A-55-4-333--55-4-333--55-4-333-333-111-----------|
E-33-2-111--33-2-111--33-2-111-------------------|

End on
e------|
B------|
G------|
D--5---|
A--5---|
E--3---|
Tap to rate this tab
# A B C D E F G H I J K L M N O P Q R S T U V W X Y Z