Song name
# A B C D E F G H I J K L M N O P Q R S T U V W X Y Z

Misc Unsigned Bands - 6-9 Monster - Taste Like tab

----------------------------------------------------------------------------
			    Taste Like - 6-9 Monster
----------------------------------------------------------------------------
Tabbed by: UltimateNirvana
Email: Michaelthenord@yahoo.com

Tuning: Standard

e|-------------------------------------------------------------------------|
B|-------------------------------------------------------------------------|
G|-------------------------------------------------------------------------|
D|-3-3-3-3-3-3-3-3-3-3-3-3-3-3-3-2-2-2-2-2-2-2-2-2-2-2-2-2-2-2-------------|
A|-3-3-3-3-3-3-3-3-3-3-3-3-3-3-3-2-2-2-2-2-2-2-2-2-2-2-2-2-2-2-------------|
E|-1-1-1-1-1-1-1-1-1-1-1-1-1-1-1-0-0-0-0-0-0-0-0-0-0-0-0-0-0-0-------------|

e|-------------------------------------------------------------------------|
B|-------------------------------------------------------------------------|
G|-------------------------------------------------------------------------|
D|-3-3-3-3-3-3-3-3\5-5-5-5/3-3-3-3-2-2-2-2-2-2-2-2-2-2-2-2-2-2-2-----------|
A|-3-3-3-3-3-3-3-3\5-5-5-5/3-3-3-3-2-2-2-2-2-2-2-2-2-2-2-2-2-2-2-----------|
E|-1-1-1-1-1-1-1-1\3-3-3-3/1-1-1-1-0-0-0-0-0-0-0-0-0-0-0-0-0-0-0-----------|

e|-------------------------------------------------------------------------|
B|-------------------------------------------------------------------------|
G|-------------------------------------------------------------------------|
D|-3-3-3-3-3-3-3-3-3-3-3-3-3-3-3-2-2-2-2-2-2-2-2-2-2-2-2-2-2-2-------------|
A|-3-3-3-3-3-3-3-3-3-3-3-3-3-3-3-2-2-2-2-2-2-2-2-2-2-2-2-2-2-2-------------|
E|-1-1-1-1-1-1-1-1-1-1-1-1-1-1-1-0-0-0-0-0-0-0-0-0-0-0-0-0-0-0-------------|

e|-------------------------------------------------------------------------|
B|-------------------------------------------------------------------------|
G|-------------------------------------------------------------------------|
D|-3-3-3-3-3-3-3-3\5-5-5-5/3-3-3-3-2-2-2-2-2-2-2-2-2-2-2-2-2-2-2-----------|
A|-3-3-3-3-3-3-3-3\5-5-5-5/3-3-3-3-2-2-2-2-2-2-2-2-2-2-2-2-2-2-2-----------|
E|-1-1-1-1-1-1-1-1\3-3-3-3/1-1-1-1-0-0-0-0-0-0-0-0-0-0-0-0-0-0-0-----------|

e|-------------------------------------------------------------------------|
B|-------------------------------------------------------------------------|
G|-------------------------------------------------------------------------|
D|-9/7\9--9/7\9--9/5-5-5-5-5-5-5/7--9/7\9--9/7\9--9/5-5-5-5-5-5-5/7--------|
A|-7/5\7--7/5\7--7/3-3-3-3-3-3-3/5--7/5\7--7/5\7--7/3-3-3-3-3-3-3/5--------|
E|-------------------------------------------------------------------------|

e|-------------------------------------------------------------------------|
B|-------------------------------------------------------------------------|
G|-------------------------------------------------------------------------|
D|-7-7-7-7p-0--2-2-3-3--7-7-7-7p-0--2-2-3-3--------------------------------|
A|-7-7-7-7p-0--2-2-3-3--7-7-7-7p-0--2-2-3-3--------------------------------|
E|-5-5-5-5p-0--0-0-1-1--5-5-5-5p-0--0-0-1-1--------------------------------|

e|-------------------------------------------------------------------------|
B|-------------------------------------------------------------------------|
G|-------------------------------------------------------------------------|
D|-7-7-7-7p-0--2-2-3-3--7-7-7-7p-0--2-2-2-2-2-2-2-3-3-3-3-3-3-3------------|
A|-7-7-7-7p-0--2-2-3-3--7-7-7-7p-0--2-2-2-2-2-2-2-3-3-3-3-3-3-3------------|
E|-5-5-5-5p-0--0-0-1-1--5-5-5-5p-0--0-0-0-0-0-0-0-1-1-1-1-1-1-1------------|

e|-------------------------------------------------------------------------|
B|-------------------------------------------------------------------------|
G|-------------------------------------------------------------------------|
D|-7-5-5h7p5-3p0--7-5-5h7p5-3p0--7-5-5h7p5-3p0--5-5-5-5-5-7----------------|
A|-7--------------7--------------7--------------5-5-5-5-5-7----------------|
E|-5--------------5--------------5--------------3-3-3-3-3-5----------------|

e|-------------------------------------------------------------------------|
B|-------------------------------------------------------------------------|
G|-------------------------------------------------------------------------|
D|-7-5-5h7p5-3p0--7-5-5h7p5-3p0--7-5-5h7p5-3p0--5-5-5-5-5-7----------------|
A|-7--------------7--------------7--------------5-5-5-5-5-7----------------|
E|-5--------------5--------------5--------------3-3-3-3-3-5----------------|

e|-------------------------------------------------------------------------|
B|-------------------------------------------------------------------------|
G|-------------------------------------------------------------------------|
D|-7-7-7-7p-0--2-2-3-3--7-7-7-7p-0--2-2-3-3--------------------------------|
A|-7-7-7-7p-0--2-2-3-3--7-7-7-7p-0--2-2-3-3--------------------------------|
E|-5-5-5-5p-0--0-0-1-1--5-5-5-5p-0--0-0-1-1--------------------------------|

e|-------------------------------------------------------------------------|
B|-------------------------------------------------------------------------|
G|-------------------------------------------------------------------------|
D|-7-7-7-7p-0--2-2-3-3--7-7-7-7p-0--2-2-2-2-2-2-2-3-3-3-3-3-3-3------------|
A|-7-7-7-7p-0--2-2-3-3--7-7-7-7p-0--2-2-2-2-2-2-2-3-3-3-3-3-3-3------------|
E|-5-5-5-5p-0--0-0-1-1--5-5-5-5p-0--0-0-0-0-0-0-0-1-1-1-1-1-1-1------------|

e|-------------------------------------------------------------------------|
B|-------------------------------------------------------------------------|
G|-------------------------------------------------------------------------|
D|-7-5-5h7p5-3p0--7-5-5h7p5-3p0--7-5-5h7p5-3p0--5-5-5-5-5-7----------------|
A|-7--------------7--------------7--------------5-5-5-5-5-7----------------|
E|-5--------------5--------------5--------------3-3-3-3-3-5----------------|

e|-------------------------------------------------------------------------|
B|-------------------------------------------------------------------------|
G|-------------------------------------------------------------------------|
D|-7-5-5h7p5-3p0--7-5-5h7p5-3p0--7-5-5h7p5-3p0--5-5-5-5-5-7----------------|
A|-7--------------7--------------7--------------5-5-5-5-5-7----------------|
E|-5--------------5--------------5--------------3-3-3-3-3-5----------------|

   ====================feedback==================================
e|-------------------------------------------------------------------------|
B|-------------------------------------------------------------------------|
G|-------------------------------------------------------------------------|
D|-7-5-5h7p5-3p0-----------------------------------------------------------|
A|-7-----------------------------------------------------------------------|
E|-5-----------------------------------------------------------------------|

Thats it..... this is one of my bands songs, its not finished but thats it
                                 ENJOY!!!
| /  slide up
| \  slide down
| h  hammer-on
| p  pull-off
| ~  vibrato
| +  harmonic
| x  Mute note
============================================================================
Tap to rate this tab
# A B C D E F G H I J K L M N O P Q R S T U V W X Y Z