Song name
# A B C D E F G H I J K L M N O P Q R S T U V W X Y Z

Misc Unsigned Bands - Butong Pakwan - And I Love Her tab

 And I Love Her(revived)
 Butong Pakwan


tama to kasi sinabayan namin sa original version
please rate this (:


Intro:
             F#m             E6              F#m
-|-------------------------------------------------------------|
-|-------------------------------------------------------------|
-|-------------------------------------------------------------|
-|-------------------------------------------------------------|
-|------2--1--4---------2--1--4---------2--1--4----------------|
-|---2---------------2---------------2-------------------------|

Verse 1:

F#m        C#m           F#m           C#m
I give her all my love    That's all I do

F#m        C#m             A             B7
And if you saw my love    You'd love her too

       E
And I love her

Verse 2:
    F#m                          C#m
-|----------9--------------9------------9-----------9----------|
-|------10-----10------10-----10-----9-----9-----9-----9-------|
-|--11-------------11-------------9-----------9----------------|
-|-------------------------------------------------------------|
-|-------------------------------------------------------------|
-|-------------------------------------------------------------|
           She    gives  me       every     thing

    F#m                          C#m
-|----------9--------------9------------9-----------9----------|
-|------10-----10------10-----10-----9-----9-----9-----9-------|
-|--11-------------11-------------9-----------9----------------|
-|-------------------------------------------------------------|
-|-------------------------------------------------------------|
-|-------------------------------------------------------------|
           And     tender        ly

    F#m                          C#m
-|----------9--------------9------------9-----------9----------|
-|------10-----10------10-----10-----9-----9-----9-----9-------|
-|--11-------------11-------------9-----------9----------------|
-|-------------------------------------------------------------|
-|-------------------------------------------------------------|
-|-------------------------------------------------------------|
           The     kiss my       lover     brings

    A                           B7
-|---------9-------------9--------------11---------------------|
-|-----10-----10-----10-----10------10------10-----------------|
-|--9-------------9-------------11-----------------------------|
-|-------------------------------------------------------------|
-|-------------------------------------------------------------|
-|-------------------------------------------------------------|
          She    brings to      me

                    E6
-|----------11------------9-----------9-----------9------------|
-|------10------10-----9-----9-----9-----9-----9-----9---------|
-|--11--------------9-----------9-----------9-----------9------|
-|-------------------------------------------------------------|
-|-------------------------------------------------------------|
-|-------------------------------------------------------------|
       And  I  love    her

Chorus:
C#m          B      C#m        G#m
A love like ours    could never die
C#m       G#m            B7
As long as I   have you near me


Verse 3:
F#m             C#m               F#m         C#m
Bright are the stars that shine   Dark is the sky

F#m         C#m             A          B7
I know this love of mine   Will never die

        E
And I love her


George Harrison:

    Gm       Dm           Gm       Dm            Gm       Dm
-|-----------------------------------------------------------------------|
-|-----------------------------------------------------------------------|
-|-----------9--7/10---------------9--9\7-----------------9--7/10--------|
-|--5--7--8---------------5--7--8----------------5--7--8-----------------|
-|-----------------------------------------------------------------------|
-|-----------------------------------------------------------------------|

    Bb        C7               F                     Gm
-|------------------------------------------------------------------------|
-|------------------------------------------------------------------------|
-|--10--7-----------------------------------------------------------------|
-|---------8--7--7\5--------------/7--------------------------------------|
-|-----------------------5--3--5--------3---------------------------------|
-|------------------------------------------5--3--1--1/3------------------|


Verse 4:
Gm              Dm                Gm          Dm
Bright are the stars that shine   Dark is the sky

Gm          Dm              Bb         C7
I know this love of mine   Will never die

        F
And I love her


Outro:
             Gm               F              Gm             D
-|----------------------------------------------------------------|
-|----------------------------------------------------------------|
-|----------------------------------------------------------------|
-|----------------------------------------------------------------|
-|------8--7--5---------8--7--5---------8--7--5--------8--7--5----|
-|---8---------------8---------------8--------------8-------------|

jab_baller@yahoo.com.ph
Tap to rate this tab
# A B C D E F G H I J K L M N O P Q R S T U V W X Y Z