Guitaretab - guitar tabs
Song name
# A B C D E F G H I J K L M N O P Q R S T U V W X Y Z

Misc Unsigned Bands - Kill The Killer - Go Wait For tab

Kill the Killer-
www.myspace.com/killthekilleruk

Intro/Verse

|-222-5-55-----------|
|-333-6-66-5-5555555-|
|-222-5-55-6-6666666-|
|----------5-5555555-|
|--------------------|
|--------------------|

Chorus

|------------------|   |-------------|
|-7-77-------------|   |-------------|
|-7-774-4/6-666666-|   |-4-4-4444444-|
|-7-775-5/7-777777-|   |-5-5-5555555-|
|-5-555-5/7-777777-|   |-5-5-5555553-|
|-----3-3/5-555555-|x3 |-0h3-3333235-|

Solo
[ Tab from: http://www.guitaretab.com/m/misc-unsigned-bands/85170.html ]
|-----------------------13-15^15-13h1513h1515^15-13-----|
|-15-151315-151315-1315------------------------------15-|
|-------------------------------------------------------|
|-------------------------------------------------------|
|-------------------------------------------------------|
|-------------------------------------------------------|x2

|--------------------------------------------------------------------------|
|-15-13----------13-15-13----------13-15-13--------------------------------|
|-------14-12-14----------14-12-14----------14-12--------------------------|
|-------------------------------------------------12-10---101210--10121012^|
|-------------------------------------------------------12------12---------|
|--------------------------------------------------------------------------|

Go Wait For by Kill the Killer
Related for Kill The Killer - Go Wait For tab
Advertisement will be closed in 10 seconds