Song name
# A B C D E F G H I J K L M N O P Q R S T U V W X Y Z

Misc Unsigned Bands - The Sick Men Of Europe - Mercutio I Am For You tab

(c)The Sick Men of Europe
Played in overdrive

e|---------------------------------------------------------------------------|
B|---------------------------------------------------------------------------|
G|---------------------------------------------------------------------------|
D|--------5p3----------------------------------------------------------------|
A|-----------3h5-5h7---------------------------------------------------------|
E|--000000-------------------------------------------------------------------|x6
pm  ......
e|---------------------------------------------------------------------------|
B|---------------------------------------------------------------------------|
G|--777-5-999-4--------------------------------------------------------------|
D|--xxx-x-xxx-x--------------------------------------------------------------|
A|--555-3-777-2--------------------------------------------------------------|
E|---------------------------------------------------------------------------|x4

e|---------------------------------------------------------------------------|
B|---------------------------------------------------------------------------|
G|---------------------------------------------------------------------------|
D|---------------------------------------------------------------------------|
A|---------------------------------------------------------------------------|
E|--0000000-3h5-2h4-1h3------------------------------------------------------|x4
pm  .......

goes soft
e|---------------------------------------------------------------------------|
B|-----7--------7---------5--------5--------6--------5--------4--------3-----|
G|----7-7------7-7-------5-5------5-5------6-6------5-5------4-4------3-3----|
D|---7---7----7---7-----5---5----5---5----6---6----5---5----4---4----3---3---|
A|--7-----7--7-----7---5-----5--5-----5--6-----6--5-----5--4-----4--3-----3--|
E|-5--------5---------3--------3--------4--------3--------2--------1-------3-|

e|---------------------------------------------------------------------------|
B|---------------------------------------------------------------------------|
G|-----------xx--------------------------------------------------------------|
D|-----xx-77-xx----xx-99-----------------------------------------------------|
A|--55-xx-55-xx-77-xx-77-----------------------------------------------------|
E|--33-xx-------55-xx--------------------------------------------------------|x4

e|---------------------------------------------------------------------------|
B|---------------------------------------------------------------------------|
G|----------7h9p7------------------------7h9p7-------------------------------|
D|-------7-9-----9--9--7--6--5--------7-9------9-7-7---7h9p7-----------------|
A|-7-9-10----------9--7--6--5---7-9-10------------9-7-9-----9----------------|
E|---------------------------------------------------------------------------|x2

heavy again vv
e|---------------------------------------------------------------------------|
B|---------------------------------------------------------------------------|
G|---------------------------------------------------------------------------|
D|--2------------------------------------------------------------------------|
A|--2------------------------------------------------------------------------|
E|--0-0-6-5-0-5-4-0-6-5-054^-------------------------------------------------|x2

played fast vv
e|---------------------------------------------------------------------------|
B|---------------------------------------------------------------------------|
G|---------------------------------------------------------------------------|
D|---------------------------------------------------------------------------|
A|---------------------------------------------------------------------------|
E|-065-054-043-032-----------------------------------------------------------|x8

played slow and drawn out vv
e|---------------------------------------------------------------------------|
B|---------------------------------------------------------------------------|
G|-------------------------------2-------------------------------------------|
D|-------------------------------2-------------------------------------------|
A|-0-6-5^-0-5-4^-0-4-3^-0-3-2^---0-------------------------------------------|
E|---------------------------------------------------------------------------|
Tap to rate this tab
 
# A B C D E F G H I J K L M N O P Q R S T U V W X Y Z