Guitaretab - guitar tabs
Song name
# A B C D E F G H I J K L M N O P Q R S T U V W X Y Z

Misc Unsigned Bands - Fire Kennel - Ignition tab

---------------------------------------------------------
			Ignition  Fire Kennel
---------------------------------------------------------

Tabbed by: Marioforever

Tuning: Standard

Riff A
e|---------0--------------------------------------|
B|-2-2-0-2----------------------------------------|
G|------------------------------------------------|
D|------------------------------------------------|
A|------------------------------------------------|
E|------------------------------------------------|
[ Tab from: http://www.guitaretab.com/m/misc-unsigned-bands/85255.html ]
Riff B
e|-2-2/4-4/6-6-6-6-6-6-6-6-6-6\4\2\0--------------|
B|-2-2/4-4/6-6-6-6-6-6-6-6-6-6\4\2\0--------------|
G|------------------------------------------------|
D|------------------------------------------------|
A|------------------------------------------------|
E|------------------------------------------------|

Sequence:
Riff A x 13
Riff B x 1
Riff A 
Riff B
Riff A x 2
Riff B 
Riff A
Riff B
Riff A x 5
Riff B
Riff A
Riff B
Riff A
Solo (improvise)
Riff A x many 

| /  slide up
| \  slide down
| h  hammer-on
| p  pull-off
| ~  vibrato
| +  harmonic
| x  Mute note
===============================================================================
Related for Fire Kennel - Ignition tab