Song name
# A B C D E F G H I J K L M N O P Q R S T U V W X Y Z

Misc Unsigned Bands - The Abortion Twins - Cocksucker In A 3-peice Suit tab

This song is by the greatest band ever!!!!http://www.myspace.com/abortiontwins

Verse
e-------------------|
b-------------------|
g--9--8--5--4-------|
d--9--8--5--4-------|
a--7--6--3--2-------|
E-------------------|

Chorus
e--------------------------------|
b--------------------------------|
g--9-8-11-10---------------------|
d--9-8-11-10---------------------|
a--7-6-9--8----------------------|
E--------------------------------|

Such an amazing song
the rythm is super easy
enjoy =]
Tap to rate this tab
# A B C D E F G H I J K L M N O P Q R S T U V W X Y Z