Song name
# A B C D E F G H I J K L M N O P Q R S T U V W X Y Z

Misc Unsigned Bands - Motion Senseless - Hard To See tab

Verses 1,2,and 3 are like this.

|--------------------------------|
|--------------------------------|
|66666666000000000000000000000000|
|66666666666666668888888844444444|  (6x are palm muted during intro, then )
|44444444666666668888888844444444|  (2nd and 3rd verse are 4x)
|00000000444444446666666622222222|  (Also the chorus but no palm mute)


Chorus. (4x)


Have a different guitar play this during chorus.

|4-4-6-4-4-6-4-6-4-4-6-4-4-6-4-6-|
|--------------------------------|
|--------------------------------|
|--------------------------------|
|--------------------------------|
|--------------------------------|


Chorus. (4x)

Solo.

|--------------------------------|
|--------------------------------|
|--------------------------14-14-|
|17-17-17-12-12-12-12-12-12------|
|--------------------------------|
|--------------------------------|

Continued.

|--------------------------------|
|--------------------------------|
|14-11-11-11-12-12-12-12-12-12---|
|-----------------------------12-|
|--------------------------------|
|--------------------------------|

Continued.

|--------------------------------|
|--------------------------------|
|------14-14-14-11-11-11-12-12-12|
|12-12---------------------------|
|--------------------------------|
|--------------------------------|

Chorus. (6x)
Tap to rate this tab
# A B C D E F G H I J K L M N O P Q R S T U V W X Y Z