Song name
# A B C D E F G H I J K L M N O P Q R S T U V W X Y Z

Misc Unsigned Bands - Xos - Let Me Go tab

Xos – Let Me Go


INTRO:
     p.m …………………………………………………………
E|---------------------------------------------------------------|
B|---------------------------------------------------------------|
G|---------------------------------------------------------------|
D|---------------------------------------------------------------|
A|-----------------------------------------33333333--------------|
E|--55555555-------11111111----------------------------33333333--|

      p.m……………………………
E|----------------------------------------------------------------|
B|----------------------------------------------------------------|
G|----------------------------------------------------------------|
D|-----------------------------------------33333333---------3333--|
A|-----------------------------------------33333333--------3333---|
E|--55555555-------11111111----------------------------3333-------|


E|---------------------------------------------------------------|
B|-----------------------------------------33333333--------------|
G|-----------------------------------------33333333--------------|
D|--55555555-------11111111--------33333333--------33333333------|       x2
A|--55555555-------11111111----------------------------33333333--|
E|--55555555-------11111111----------------------------33333333--|

VERSE:
  p.m …………………………………………………………
E|---------------------------------------------------------------|
B|---------------------------------------------------------------|
G|---------------------------------------------------------------|
D|---------------------------------------------------------------|       x4
A|-----------------------------------------33333333--------------|
E|--55555555-------11111111----------------------------33333333--|


CORSE:
E|-----------------|
B|-------------3~ -|
G|-------------3~ -|
D|--5~ -------3~ ---------3~ ---------1~ --------3~ 
       x4
A|--5~ ------------------- 3~ ---------1~ --------3~ -----------------------------------------|
E|--5~ --------------------3~ ---------1~ --------3~ -----------------------------------------|

BRIDGE:
E|---------------------------------------------------------------------------------|
B|---------------------------------------------------------------------------------|
G|---------------------------------------------------------------------------------|
D|-----11------11------11--------11---------11------11--------11-------11------11--|     
 x2
A|----------9--------9---------9----------9----------8--------8---------8-------8--|
E|---------------------------------------------------------------------------------|


E|--------------------------------------------------------------------------------------------|
B|--------------------------------------------------------------------------------------------|
G|--------------------------------------------------------------------------------------------|

      x2
A|----------7----------7--------7-------------7----------6-----------6----------6----------6--|
E|--------------------------------------------------------------------------------------------|


E|----------------------------------------------------------------------------------|
B|----------------------------------------------------------------------------------|
G|-----5-------------7--------7------7-------7----------7-------7------7------7-----|
D|-----7-----------------5-------5------5--------5----------4------4-----4-------4--|
A|----------------------------------------------------------------------------------|
E|----------------------------------------------------------------------------------|


E|---------------------------------------------------------------------------|
B|---------------------------------------------------------------------------|
G|-----5-------5--------5-------5--------5-------5------5-----5-----------3--|
D|---------5--------5-------5------5---------2-------2-----2-----2--------1--|
A|---------------------------------------------------------------------------|
E|---------------------------------------------------------------------------|


E|-------------------------------------------|
B|-------------------------------------------|
G|-----------------------1~ -------------3~ -|
D|-----3-----------------1~ -------------3~ -|
A|-----1-----------------1~ -------------3~ -|
E|-------------------------------------------|


It end’s with some wibbar between  5 and 6  and then tune out.


~ = vibrato


INTRO x1
VERSE x4
COURSE x4
VERSE x4
COURSE x2
BRIDGE x1
COURSE x4
Tap to rate this tab
# A B C D E F G H I J K L M N O P Q R S T U V W X Y Z