Song name
# A B C D E F G H I J K L M N O P Q R S T U V W X Y Z

Misc Unsigned Bands - Every Step Every Breath - Alphazordon tab

Artist:  Every Step Every Breath
Song:    AlphaZordon

I support these guys so much. hope this brings back some memories of the last year. i 
if the fingering is exact but im sure im close so i put a few options. im pretty sure the 
are right tho.

  Intro
 |-----------------------------------|----------------------------------|
 |-----------------------------------|----------------------------------|
 |-----------------------------------|----------------------------------|
 |-----------------------------------|----------------------------------|x1
 |-----8-7---------10-8----------7-8-|-----8-7---------10-8------10-7-8-|
D|-00------8----00------10----00-----|-00------8----00------10----------|
   pm           pm            pm       pm           pm


  guitar 1
  2 step verse
 |-----------------------------------|------------------------------------|
 |-----------------------------------|------------------------------------|
 |-----------------------------------|------------------------------------|
 |-----------------------------------|------------7777--------------------|x1
 |-----8-7---------10-8----------7-8-|-----8-7---------10101010-8888-7777-|
D|-00------8----00------10----00-----|-00------8--------------------------|
   pm           pm            pm

  2 step verse                                                 ending 2
 |----------------------------------|-----------------------|-------------|
 |----------------------------------|-----------------------|-------------|
 |----------------------------------|-----------------------|-7-----------|X4
 |----------------------------------|-----------------------|---10-8-7----|
 |-----8-7---------10-8---------7-8-|-----8-7-------10-8----|----------10-|
D|-00------8----00------10---00-----|-00------8--00------10-|-------------|
   pm           pm            pm                  pm

   ending 2 -- other way
 |--------------|
 |--------------|
 |--------------|
 |12-10-8-------|
 |--------12-10-|
D|--------------|


 guitar 2
 2step verse
 |---------------------------|------------------------------------------|
 |---------------------------|------------------------------------------|
 |---------------------------|------------------------------------------|
 |----7-5-------7-5------5-7-|----7-5----10101010-88888-77777-----------|x1
 |--------5---------7--------|--------5----------------------1010101010-|
D|-00--------00-------00-----|-00---------------------------------------|
   pm        pm       pm       pm
                                                     ending 2
 |---------------------------|---------------------|-------------|
 |---------------------------|---------------------|-------------|
 |---------------------------|---------------------|-7-----------|
 |----7-5-------7-5------5-7-|----7-5-------7-5----|---10-8-7----|X4
 |--------5---------7--------|--------5---------7--|----------10-|
D|-00--------00-------00-----|-00--------00--------|-------------|
   pm        pm       pm       pm

 ending 2 other way
|---------------|
|---------------|
|---------------|
|-12-10-8-------|
|---------12-10-|
|---------------|

 transition breakdown
|--------------|-------------|-----------------------------------|
|--------------|-------------|-----------------------------------|
|--------------|-------------|-----------------------------------|
|--------------|-------------|-----------------------------------|x1
|-0000--0-00---|-0000-0-00---|-0000--0-00--0000---ding ding------|
|-0000--0-00---|-0000-0-00---|-0000--0-00--0000------------------|

 breakdown
 |-----------------------------------------------|
 |-----------------------------------------------|
 |-----------------------------------------------|
 |-----------------------------------------------| x2
 |--0000-------0-00--0000-------0000-0000--0-00--|
D|--0000-------0-00--0000-------0000-0000--0-00--|

 outro breakdown
 |-------------------------|
 |-------------------------|
 |-------------------------|
 |-------------------------|x1
 |-0-00---0-00---0-00------|
D|-0-00---0-00---0-00------|

2 step verse


slow part
 guitar 1
|------------------------|
|------------------------|
|-10--9--5---------------|
|-x---x--x---------------|x4
|-8---7--3---------------|
|------------000-000-----|

 guitar 2
|------------------------|  |-------------------------|
|------------------------|  |-------------------------|
|-10--9--5---------------|  |-14---12---9-------------|
|-x---x--x---------------|x2|-x----x----x-------------|x2
|-8---7--3---------------|  |-12---10---7-------------|
|------------000-000-----|  |-------------000---000---|

breakdown 2
 both
|---------------------------|
|---------------------------|
|-------------10-----5-5--7-|
|-------------x------x-x--x-|x8
|-0-00-0-0----8------3-3--5-|
|-0-00-0 0-------000--------|

 guitar 2
|-------------------------|   |------------------------|
|-------------------------|   |------------------------|
|-----------10-----5--5-7-|   |--------10-----9---9-10-|
|-----------x------x--x-x-|x4 |--------x------x---x-x--|x4
|-0-0000----8------3--3-5-|   |--------12-----7---7-8--|
|-0-0000-------000--------|   |-0-0000----000----------|

---------------------------------------------------------------------------------
 2step
|-------------------------|
|-------------------------|
|-----------10-----5-5--7-|
|-----------x------x-x--x-|x4
|-0000-0----8------3-3--5-|
|-0000 0-------000--------|

solo/tapping/fade tapping
Tap to rate this tab
# A B C D E F G H I J K L M N O P Q R S T U V W X Y Z