Song name
# A B C D E F G H I J K L M N O P Q R S T U V W X Y Z

Misc Unsigned Bands - Democracy For Listeners - Never tab

Band: Democracy for Listeners
Song: Never
Tabbed by: Cram Eel

Capo 2

Just play this riff for the verses:
e|----0--------------0--0h2p0--------------------------------|
B|-----0-0h2--------2-2--------------------------------------|
G|---2--2---2------2---2-------------------------------------|
D|--2-------------0------------------------------------------|
A|-0---------------------------------------------------------|
E|-----------------------------------------------------------|


For the Chorus, strum:
e|-000000---000000-------------------------------------------|
B|-000000---222222-------------------------------------------|
G|-222222---222222-------------------------------------------|
D|-222222---000000-------------------------------------------|
A|-000000---000000-------------------------------------------|
E|-000000---000000-------------------------------------------|


I thought I knew everyone in the world
That no one could make my head turn and twirl
Not until God brought this life a new twist
And brought me a gift like this

Chorus:
Never in my days was someone
Never in my time was this sweet
Never in those days that enchant
Never have I so loved someone
Like you
Like you

Times of which I felt so empty inside
Times of which I felt so sad I could cry
Not until God brought this life a new twist
And brought me a gift like this

Chorus:
Never in my days was someone
Never in my time was this sweet
Never in those days that enchant
Never have I so loved someone
Like you
Like you

Bridge (whack A and variations of A, A, A and more A)

Chorus

(play verse riff slowly)
I thought I knew everyone in the world...

Enjoy!
Tap to rate this tab
# A B C D E F G H I J K L M N O P Q R S T U V W X Y Z