Song name
# A B C D E F G H I J K L M N O P Q R S T U V W X Y Z

Misc Unsigned Bands - Skinned Youth - Carters Lake tab

Help us improve GuitareTab! Take a short survey!
[b=bend]

Intro:-

E-------------------------------------------------------------------|
B-------------------------------------------------------------------|
G------------------------------------7-7-7-7-7-7-7--9-9-9-----------|
D--7-7-7-7-7-7-7-7-7-7-7-7-7-7-7-7---7-7-7-7-7-7-7--9-9-9--9-9-9----|   X6
A--7-7-7-7-7-7-7-7-7-7-7-7-7-7-7-7---5-5-5-5-5-5-5--7-7-7--9-9-9----|
E--5-5-5-5-5-5-5-5-5-5-5-5-5-5-5-5-------------------------7-7-7----|

E--------------------------|
B--------------------------|
G--------------------------|
D--------7------------7----|
A-----7-----7------7-----7-|
E--5------------5----------|


E---------------------------|
B---------------------------|
G---------------------------|
D--------9-------------9--9-|
A-----9-----9----------9--9-|
E--7------------7------7--7-|

Verse:-

E-------------------------------------------------------------|
B-------------------------------------------------------------|
G---------------6-6-6-6-6-6--7-7-7-7-7-7-7-7-7-7-7-7----------|
D--7-7-7-7-7-7--6-6-6-6-6-6--7-7-7-7-7-7-7-7-7-7-7-7----------|   X4
A--7-7-7-7-7-7--4-4-4-4-4-4--5-5-5-5-5-5-5-5-5-5-5-5----------|
E--5-5-5-5-5-5------------------------------------------------|

Pre Chorus:-

E--------------------------------------------------------------|
B--------------------------------------------------------------|
G--------------------------------------------------------------|
D--7-7-7-7-7-7-7-7-7-7-7-7-7-7--9-9-9-9-9-9-9-9-9-9-9-9-9-9-9-9|
A--7-7-7-7-7-7-7-7-7-7-7-7-7-7--9-9-9-9-9-9-9-9-9-9-9-9-9-9-9-9|
E--5-5-5-5-5-5-5-5-5-5-5-5-5-5--7-7-7-7-7-7-7-7-7-7-7-7-7-7-7-7|

E-----------------------------------------|
B-----------------------------------------|
G-----------------------------------------|
D--7-7-7-7-7-7-7-7-7-7-7-7-7-7-7-7-7-7-7-7|      X2
A--7-7-7-7-7-7-7-7-7-7-7-7-7-7-7-7-7-7-7-7|
E--5-5-5-5-5-5-5-5-5-5-5-5-5-5-5-5-5-5-5-5|

Chorus:-

E---------------------------------------------------|
B---------------------------------------------------|
G--6-6-6-6-6-6--4-4-4-4-4-4-------------------------|
D--6-6-6-6-6-6--4-4-4-4-4-4--4-4-4-4-4-4-4-4-4-4-4-4|  X3
A--4-4-4-4-4-4--2-2-2-2-2-2--4-4-4-4-4-4-4-4-4-4-4-4|
E----------------------------2-2-2-2-2-2-2-2-2-2-2-2|

E--------------------|
B--------------------|
G--6~----4~----------|
D--6~----4~----4~----|
A--4~----2~----4~----|
E--------------2~----|

Verse 2:- (same as Verse 1)

E-------------------------------------------------------------|
B-------------------------------------------------------------|
G---------------6-6-6-6-6-6--7-7-7-7-7-7-7-7-7-7-7-7----------|
D--7-7-7-7-7-7--6-6-6-6-6-6--7-7-7-7-7-7-7-7-7-7-7-7----------|   X4
A--7-7-7-7-7-7--4-4-4-4-4-4--5-5-5-5-5-5-5-5-5-5-5-5----------|
E--5-5-5-5-5-5------------------------------------------------|

Pre Chorus:- (repeat):-

E--------------------------------------------------------------|
B--------------------------------------------------------------|
G--------------------------------------------------------------|
D--7-7-7-7-7-7-7-7-7-7-7-7-7-7--9-9-9-9-9-9-9-9-9-9-9-9-9-9-9-9|
A--7-7-7-7-7-7-7-7-7-7-7-7-7-7--9-9-9-9-9-9-9-9-9-9-9-9-9-9-9-9|
E--5-5-5-5-5-5-5-5-5-5-5-5-5-5--7-7-7-7-7-7-7-7-7-7-7-7-7-7-7-7|

E-----------------------------------------|
B-----------------------------------------|
G-----------------------------------------|
D--7-7-7-7-7-7-7-7-7-7-7-7-7-7-7-7-7-7-7-7|      X2
A--7-7-7-7-7-7-7-7-7-7-7-7-7-7-7-7-7-7-7-7|
E--5-5-5-5-5-5-5-5-5-5-5-5-5-5-5-5-5-5-5-5|

Chorus:- (repeat)

E---------------------------------------------------|
B---------------------------------------------------|
G--6-6-6-6-6-6--4-4-4-4-4-4-------------------------|
D--6-6-6-6-6-6--4-4-4-4-4-4--4-4-4-4-4-4-4-4-4-4-4-4|  X3
A--4-4-4-4-4-4--2-2-2-2-2-2--4-4-4-4-4-4-4-4-4-4-4-4|
E----------------------------2-2-2-2-2-2-2-2-2-2-2-2|

E--------------------|
B--------------------|
G--6~----4~----------|
D--6~----4~----4~----|
A--4~----2~----4~----|
E--------------2~----|

Solo:-

E------------------------------------------------------------------|
B------------------------------------------------------------------|
G------------------------------------------------------------------|
D--12-12-12-12-12-12b------10-10-10-10-10-10b----------------------|
A------------------------------------------------10-10-10-10-10-10b|
E------------------------------------------------------------------|

E-------------|                        E--------------------------------|
B-------------|                        B--------------------------------|
G-------------|             Do this    G--------------------------------|
D-------------|  (ALL) X4   For last   D--------------------------------|
A--12-11-12-11|             Line -     A--12--12--12--12--12--12--12--12|
E-------------|                        E--------------------------------|

Pre Chorus:-(repeat)

E--------------------------------------------------------------|
B--------------------------------------------------------------|
G--------------------------------------------------------------|
D--7-7-7-7-7-7-7-7-7-7-7-7-7-7--9-9-9-9-9-9-9-9-9-9-9-9-9-9-9-9|
A--7-7-7-7-7-7-7-7-7-7-7-7-7-7--9-9-9-9-9-9-9-9-9-9-9-9-9-9-9-9|
E--5-5-5-5-5-5-5-5-5-5-5-5-5-5--7-7-7-7-7-7-7-7-7-7-7-7-7-7-7-7|

E-----------------------------------------|
B-----------------------------------------|
G-----------------------------------------|
D--7-7-7-7-7-7-7-7-7-7-7-7-7-7-7-7-7-7-7-7|      X2
A--7-7-7-7-7-7-7-7-7-7-7-7-7-7-7-7-7-7-7-7|
E--5-5-5-5-5-5-5-5-5-5-5-5-5-5-5-5-5-5-5-5|

Chorus:- (repeat)

E---------------------------------------------------|
B---------------------------------------------------|
G--6-6-6-6-6-6--4-4-4-4-4-4-------------------------|
D--6-6-6-6-6-6--4-4-4-4-4-4--4-4-4-4-4-4-4-4-4-4-4-4|  X3
A--4-4-4-4-4-4--2-2-2-2-2-2--4-4-4-4-4-4-4-4-4-4-4-4|
E----------------------------2-2-2-2-2-2-2-2-2-2-2-2|

E--------------------|
B--------------------|
G--6~----4~----------|
D--6~----4~----4~----|  {Let last note ring out and fade}
A--4~----2~----4~----|
E--------------2~----|

Song Order:-

Intro
Verse
Pre-Chorus
Chorus
Verse
Pre-Chorus
Chorus
Solo
Pre-Chorus
Chorus

{END}











Related for Skinned Youth - Carters Lake tab