Song name
# A B C D E F G H I J K L M N O P Q R S T U V W X Y Z

Misc Unsigned Bands - Tilldeathdowestart - Baby Killer Breakdown tab

hey corey


me
---8--8--8--8--8--8--8--8--8--8--8--8--8-------------------|
----12-12-12-12-12-12-12-12-12-12-12-12-12-----------------|
-----------------------------------------------------------|
-----------------------------------------------------------|  }12x
-----------------------------------------------------------|
-----------------------------------------------------------|

you after drums
-----------------------------------------------------------|
-----------------------------------------------------------|
-----------------------------------------------------------|
-----------------------------------------------------------|
-------------------------------------0---------------------|
-0-0-0-0-0-0-0-0-0-0-0-0-0-0-0-0-0-0-0---------------------|
-0-0-0-0-0-0-0-0-0-0-0-0-0-0-0-0-0-0-0---------------------|
P.M.. . . . . . . . . . . . . . . . ..

me & you
---------8--8--8--8------------|
----------12-12-12-12----------|
-------------------------------|
-------------------------------|4x
-0-0-0-0--------------0-0-0-0--|
-0-0-0-0--------------0-0-0-0--|
-0-0-0-0--------------0-0-0-0--|
 . . . .              . . . .

then it slows down after nicks fill
------------------------------------------|
------------------------------------------|
-------------------------------------- ---|6x
-000-0000-0~----------------000-0000-0~---|
-000-0000-0~----------------000-0000-0~---|
-000-0000-0~----------------000-0000-0~---|
 ... .... .                 ... .... ..
then
---------------------------------------|
---------------------------------------|
-----------------3*--------------------|
0-1-4-3-1-0-1-4-3---000-0000-0~--------|  repeat like eight times
0-1-4-3-1-0-1-4-3---000-0000-0~--------|
0-1-4-3-1-0-1-4-3---000-0000-0~--------|
. . . . . . . . .*  ... .... ..
Tap to rate this tab
# A B C D E F G H I J K L M N O P Q R S T U V W X Y Z