Song name
# A B C D E F G H I J K L M N O P Q R S T U V W X Y Z

Misc Unsigned Bands - Fill In The Love - Left By The Sun tab

Intro:

E ----------0-1-----3-----------------|
B ------1-----------3-----------------|
G --------2---------2-----------------|
D ----2-------------------------------|
A --0---------------------------------|
E ------------------------------------|
   |<--- palm muted ------------------|


E -------------------------------------------------------w---w---w------|
B --1--x--1---x--0-------------------1--x---1-----0-----1-1/3-3/5-5^8---|
G --2--x--2---x--0-------------------2--x---2-----0---------------------|
D --2--x--2---x--0-------------------2--x---2-----0---------------------|
A --0--x--0---x------------3~----2-3-0--x---0---------------------------|
E ----------------------0-----------------------------------------------|
Tap to rate this tab
 
# A B C D E F G H I J K L M N O P Q R S T U V W X Y Z