Song name
# A B C D E F G H I J K L M N O P Q R S T U V W X Y Z

Misc Unsigned Bands - Testing - Nonviolence tab

e|-12x2----------------------------------------------------------|
b|---14x2--------------------------------------------------------|
g|------12x2-----------------------------------------------------|
d|---------14x2------------------15x2-17x2-14x2-15x2-17~~let-ring|
a|------------12x2-14x2-15x2-14x2--------------------------------|
e|---------------------------------------------------------------|



e|----------------------------------|
b|-----------------------------5/12~|
g|--------------------7x2-5x2-------|
d|----------7x2-5x2---------7-5-----|
a|-7x2-5x2--------7-5---------------|
e|-------7-5------------------------|

YAn lng muna praktis ko picking    ^_^



AMAT SKIL!!!!
Tap to rate this tab
 
# A B C D E F G H I J K L M N O P Q R S T U V W X Y Z