Guitaretab - guitar tabs
Song name
# A B C D E F G H I J K L M N O P Q R S T U V W X Y Z

Misc Unsigned Bands - Overkill - 1230 tab

INTRO
e|-------------------------------------|
B|-------------------------------------|
G|-------------------------------------|
D|-------------------------9~5~2~9~5~2-|
A|-------------------------9~5~2~9~5~2-|
E|-\\\\\\\\\\\\\\\\\\\\\0--7~3~0~7~3~0-|

VERSE
e|---------------------------------|
B|---------------------------------|
G|---------------------------------|
D|-99999999-555555555-222222222222-|
A|-99999999-555555555-222222222222-|
E|-77777777-333333333-000000000000-|

PRE CHORUS
e|--------------|
B|--------------|
G|-9\8\7-9\8\7-|
D|-9\8\7-9\8\7-|
A|-7\6\5-7\6\5-|
E|--------------|
[ Tab from: http://www.guitaretab.com/m/misc-unsigned-bands/85508.html ]
CHORUS
e|-------------------------------|
B|-------------------------------|
G|-77777777----------------------|
D|-77777777-77777777-55555555555-|
A|-55555555-77777777-55555555555-|
E|----------55555555-33333333333-|

SOLO (part1) (x4)
e|--------------|
B|--------------|
G|----------5h7-|
D|-----5h7------|
A|-5h7----------|
E|--------------|

SOLO (part2)
e|-------------------------------------------------------------------|
B|-------------------------------------------------------------------|
G|-11p9-9p7-7p5\3------------------------------10-12-9------10-12-7b-|
D|----------------------5-3-2------5-3-2---12-9---------12-9---------|
A|----------------0-2-3-------0-2-3----------------------------------|
E|-------------------------------------------------------------------|

e|------------------------|
B|------------------------|
G|------------------------|
D|-9~5~2~9~5~2---9b-9b-9b-|
A|-9~5~2~9~5~2---9b-9b-9b-|
E|-7~3~0~7~3~0---7b-7b-7b-|
Related for Overkill - 1230 tab