Song name
# A B C D E F G H I J K L M N O P Q R S T U V W X Y Z

Misc Unsigned Bands - Overkill - Jizz Day tab

INTRO
e|--------------------------------5-3-1-0-------------|
B|----------------------------------------5-3-1-0-----|
G|---11-9----11-12--4-5----4-5-7--5-3-1-0-------------|
D|-9-------9------------7-------------------------7\4-|
A|------------------------------------------------7\4-|
E|------------------------------------------------5\2-|

VERSE
e|-------------------------------------|
B|-------------------------------------|
G|-------------------------------------|
D|-22222222-00000000-00000000-77777777-|
A|-22222222-22222222-22222222-77777777-|
E|-00000000-22222222-33333333-55555555-|

CHORUS
E|-------------------------------------------|
B|-------------------------------------------|
G|-------------------------------------------|
D|-22222222222222222222-00000000000000000000-|
A|-22222222222222222222-22222222222222222222-|
E|-00000000000000000000-33333333333333333333-|

BRIDGE
e|---------------------------------------------|
B|---------------------------------------------|
G|---------------------------------------------|
D|-222222222222222222222222222-222-000-000-777-|
A|-222222222222222222222222222-222-222-222-777-|
E|-000000000000000000000000000-000-222-333-555-|

e|-------------------------------------------------------------|
B|-------------------------------------------------------------|
G|-------------------------------------------------------------|
D|-222-000-000-777-2222222222-0000000000-0000000000-7777777777-|
A|-222-222-222-777-2222222222-2222222222-2222222222-7777777777-|
E|-000-222-333-555-0000000000-2222222222-3333333333-5555555555-|


OUTRO
e|---------------------------------------------------------|
B|---------------------------5-0-1-----1-----3-----1-----1-|
G|---11-9--11-12-4-5---4-5-7---------0-----0-----0-----0---|
D|-9------9----------7-------------3-----2-----------------|
A|---------------------------------------------3-----2-----|
E|---------------------------------------------------------|

e|------------------------------------------------5-7-0-|
B|-------------4-----------4----8-7-5---------7---------|
G|-5/7---8-7-5---4---8-7-5---4-----------7--------------|
D|-5/7---------------------------------5---5----7-------|
A|-3/5--------------------------------------------------|
E|------------------------------------------------------|


www.myspace.com/overkillrock
Tap to rate this tab
# A B C D E F G H I J K L M N O P Q R S T U V W X Y Z