Song name
# A B C D E F G H I J K L M N O P Q R S T U V W X Y Z

Misc Unsigned Bands - V3o2version - Nonviolence tab

V3(O2 version)

Sa mga bisaya nga aDIK ug O2jam...


sa chorus sa ni k2ng lead-lead nla....

e|--------------10----------------------------------10-12-12-12~--------|
b|---10-12-13~------12~---13-10~---10x3-9-10-12-13-12-13----------------|
g|-9--------------------------------------------------------------------|
d|----------------------------------------------------------------------|
a|----------------------------------------------------------------------|
e|----------------------------------------------------------------------|

e|-10-12-13~--------10-12~---------------------10----------------|
b|----------12---13--------10----10-12-13---13---12--12-13---10~~|
g|---------------------------------------------------------------|
d|---------------------------------------------------------------|
a|---------------------------------------------------------------|
e|---------------------------------------------------------------|

wa pa ko ka cepra sa keyboards sa sunod sa lead.....

kana lng sa....^_^
Tap to rate this tab
 
# A B C D E F G H I J K L M N O P Q R S T U V W X Y Z