Guitaretab - guitar tabs
Song name
# A B C D E F G H I J K L M N O P Q R S T U V W X Y Z

Misc Unsigned Bands - Aven Reachout - Tempting tab

Tempting Tab by Aven Reachout, www.Ultimate-Guitar.Com

--------------------------------------------------------------------------
                        TEMPTING- Aven Reachout
--------------------------------------------------------------------------

Aven Reachout-Tempting
Album- Requesting Help
Tabbed by - Austin H.
austin@networkprovidersinc.com



Intro

e|---------------------------0-0----------|
B|---------------------------0-0----------|
G|--------h7-7-7-7-7-7--------------------|  X2
D|--9-9-9-h7-7-7-7-7-7-5-5-5----5-5-5--3/9|
A|--9-9-9-h5-5-5-5-5-5-3-3-3----3-3-3--3/9|
E|--7-7-7--------------3-3-3----3-3-3--1/7|

Verse 1

e|-------------------------------------------|
B|-------------------------------------------|
G|----------7-7-7-7-7-7----------------------|
D|--9-9-9-9-7-7-7-7-7-7-7-7-7-7-7-7-5-5-5-5/9| X4
A|--9-9-9-9-5-5-5-5-5-5-7-7-7-7-7-7-5-5-5-5/9|
E|--7-7-7-7-------------5-5-5-5-5-5-3-3-3-3/7|


 Chorus
e|--------------------------0-0------------|
B|--------------------------0-0------------|
G|-----------h7-7-7-7----------------------| X4
D|--9-9-9-9--h7-7-7-7--5-5-5---5-5-5--3/9--|
A|--7-7-7-7--h5-5-5-5--5-5-5---5-5-5--3/9--|
E|--7-7-7-7----------- 3-3-3---3-3-3--1/7--|

Verse 2

e|-------------------------------------------|
B|-------------------------------------------|
G|----------7-7-7-7-7-7----------------------|
D|--9-9-9-9-7-7-7-7-7-7-7-7-7-7-7-7-5-5-5-5/9| X4
A|--9-9-9-9-5-5-5-5-5-5-7-7-7-7-7-7-5-5-5-5/9|
E|--7-7-7-7-------------5-5-5-5-5-5-3-3-3-3/7|


Solo-(not yet available)

Verse 3

e|--------------------------------------------|
B|--------------------------------------------|
G|----------7-7-7-7-7-7-----------------------|
D|--9-9-9-9-7-7-7-7-7-7-7-7-7-7-7-7-5-5-5-5/9`| X4
A|--9-9-9-9-5-5-5-5-5-5-7-7-7-7-7-7-5-5-5-5/9`|
E|--7-7-7-7-------------5-5-5-5-5-5-3-3-3-3/7`|

Chorus
[ Tab from: http://www.guitaretab.com/m/misc-unsigned-bands/85521.html ]
e|--------------------------0-0------------|
B|--------------------------0-0------------|
G|-----------h7-7-7-7----------------------| X2
D|--9-9-9-9--h7-7-7-7--5-5-5---5-5-5--3/9--|
A|--7-7-7-7--h5-5-5-5--5-5-5---5-5-5--3/9--|
E|--7-7-7-7----------- 3-3-3---3-3-3--1/7--|

All guitars
Solo is emerged with bass and guitar in last cho

I am in this band, i am the secondary guitar.
I wrote the lyrics here they are and this is a real band we are tring to 
get started so.......


Aven Reachout  Lyrics
Tempting

1st verse
Maybe I'd find out something new
What I thought was maybe true
I would find out a reason
For us, and a treason
See me here all alone
Maybe Iíd call you on my phone
Iíd say all the words,that I know
I feel my self, falling 
My life is so empty
I find it so tempting
To leave it here empty
But it wasnít worth it
Maybe Iíll drive to a place that I know
A faraway place, I will be alone
I really hate that type of tone
That you are, using
I find that Iím losing
All that I had, is lost and gone

Guitar

Chorus
My life is so empty(Tempting)
I find it so tempting
Maybe I will find it  (someday)
I hope I can do this(So So Tempting)
Those things that Iveí lost
Someone comeín help me(Tempting)
I am seeming to struggle
And Iím alone

Guitar-solo

2nd verse
Those things that I lost
Have Seem to have found me
But can I live with these pieces
That are all scattered
My life is a mess
But I guess this is my test
That has come to me in my life
I find it so tempting
To make my life empty
But that my strife
That I have in life
(Tempting)
(HEY,HEY,HEY)

Chorus
/My life is so empty(Tempting)
I find it so tempting(
Maybe I will find it  (someday)
I hope I can do this(So So Tempting)
Those things that Iveí lost
Someone comeín help me(Tempting)
I am seeming to struggle
And Iím alone/
/My life is so empty(Tempting)
I find it so tempting(My life is so empty)
Maybe I will find it(I find it so tempting) (someday)
I hope I can do this(So So Tempting)
Those things that Iveí lost(Maybe I will find it)
Someone comeín help me(Tempting)
I am seeming to struggle(Someone comeín help me)
And Iím alone/
 (someday)
(Tempting) 
(So So Tempting)

 

Related for Aven Reachout - Tempting tab