Song name
# A B C D E F G H I J K L M N O P Q R S T U V W X Y Z

Misc Unsigned Bands - Jeez - Hoooot tab

Help us improve GuitareTab! Take a short survey!
----------------------------------------------------------------------------
			    HOOOOT - Jeez
----------------------------------------------------------------------------

| /  slide up
| \  slide down
| h  hammer-on
| p  pull-off
| ~  vibrato
| +  harmonic
| x  Mute note
============================================================================

Tabbed by:Zewbag 
Email:zewbag67@yahoo.com

Tuning:DADGBe
      hooooooot                                   repeatx4
e|---------------------------------------------------------------------------|
B|---------------------------------------------------------------------------|
G|-------------------------------77777777------------------------------------|
D|-000------------------8---------------------5/7----------------------------|
A|-000---------------00-8--------55555555------------------------------------|
D|-000---------------00-8----------------------------------------------------|
             Outro ___ DoMiNaTe                    RepeatX6
e|---------------------------------------------------------------------------|
B|---------------------------------------------------------------------------|
G|---------------------------------------------------------------------------|Bend
D|-----------5-3-5-3------------5-3-5----------------------------------------|
A|------5-3----------------5-3-----------------------------------------------|
D|-0-3----------------0-3----------------------------------------------------|
        KiLlA!!          outro-Intro
e|---------------------------------------------------------------------------|
B|---------------------------------------------------------------------------|
G|---------------------------------------------------------------------------|Let Ring start from intro repeatx2 CHEA!!
D|-000--------000-------------0----------------------------------------------|
A|-000--5-3---000--5-3-5-3----0----------------------------------------------|
D|-000--------000-------------0----------------------------------------------|

Related for Jeez - Hoooot tab