Song name
# A B C D E F G H I J K L M N O P Q R S T U V W X Y Z

Misc Unsigned Bands - Mollys Nightmare - My Nightmare tab

Molly’s Nightmare
My Nightmare Tab

* =slow strum
** =very slow strum
~ =let ring

Strum Pattern for everything = 1, 1234 (all-string strum)

Intro:

E--2-2-2-2-2--2-2-2-2-2--2-2-2-2-2--2-2-2-2-2-|
B--3-3-3-3-3--3-3-3-3-3--0-0-0-0-0--0-0-0-0-0-|
G---------------------------------------------|
D--x-x-x-x-x--x-x-x-x-x--x-x-x-x-x--x-x-x-x-x-|
A--2-2-2-2-2--2-2-2-2-2--2-2-2-2-2--2-2-2-2-2-|
E--3-3-3-3-3--3-3-3-3-3--3-3-3-3-3--3-3-3-3-3-|


E---------------------------------------------|
B---------------------------------------------|
G------------------------2-2-2-2-2------------|
D--x-x-x-x-x--x-x-x-x-x-------------2-2-2-2-2-|
A--2-2-2-2-2--2-2-2-2-2--2-2-2-2-2--2-2-2-2-2-|
E--3-3-3-3-3--3-3-3-3-3--3-3-3-3-3--3-3-3-3-3-|


E--2-2-2-2-2--2-2-2-2-2--2-2-2-2-2--2-2-2-2-2-|
B--3-3-3-3-3--3-3-3-3-3--0-0-0-0-0--0-0-0-0-0-|
G---------------------------------------------|
D--x-x-x-x-x--x-x-x-x-x--x-x-x-x-x--x-x-x-x-x-|
A--2-2-2-2-2--2-2-2-2-2--2-2-2-2-2--2-2-2-2-2-|
E--3-3-3-3-3--3-3-3-3-3--3-3-3-3-3--3-3-3-3-3-|


E-------------------------------------~-------|
B------------------------3-3-3-3-3---3~-------|
G------------------------2-2-2-2-2----~-------|
D--x-x-x-x-x--x-x-x-x-x--------------3~-------|
A--2-2-2-2-2--2-2-2-2-2--2-2-2-2-2---2~-------|
E--3-3-3-3-3--3-3-3-3-3--3-3-3-3-3---3~-------|
                         * * * * *   **

Pre Verse:

E--2-2-2-2-2--2-2-2-2-2-----------------------|
B--3-3-3-3-3--3-3-3-3-3--3-3-3-3-3--3-3-3-3-3-|
G------------------------2-2-2-2-2--2-2-2-2-2-|
D---------------------------------------------|
A---------------------------------------------|
E--3-3-3-3-3--3-3-3-3-3--3-3-3-3-3--3-3-3-3-3-|
--------------(Quiet Strumming)---------------|

E---------------------------------------------|
B--3-3-3-3-3--3-3-3-3-3--3-3-3-3-3--3-3-3-3-3-|
G---------------------------------------------|
D------------------------2-2-2-2-2--2-2-2-2-2-|
A---------------------------------------------|
E--3-3-3-3-3--3-3-3-3-3--3-3-3-3-3--3-3-3-3-3-|
--------------(Quiet Strumming)---------------|
Verse 1:

E--2-2-2-2-2--2-2-2-2-2--2-2-2-2-2--2-2-2-2-2-|
B--3-3-3-3-3--3-3-3-3-3--3-3-3-3-3--3-3-3-3-3-|
G---------------------------------------------|
D---------------------------------------------|
A---------------------------------------------|
E--3-3-3-3-3--3-3-3-3-3--3-3-3-3-3--3-3-3-3-3-|


E---------------------------------------------|
B--3-3-3-3-3--3-3-3-3-3--3-3-3-3-3--3-3-3-3-3-|
G--2-2-2-2-2--2-2-2-2-2--2-2-2-2-2--2-2-2-2-2-|
D---------------------------------------------|
A---------------------------------------------|
E--3-3-3-3-3--3-3-3-3-3--3-3-3-3-3--3-3-3-3-3-|


E---------------------------------------------|
B--3-3-3-3-3--3-3-3-3-3--3-3-3-3-3--3-3-3-3-3-|
G---------------------------------------------|
D---------------------------------------------|
A---------------------------------------------|
E--3-3-3-3-3--3-3-3-3-3--3-3-3-3-3--3-3-3-3-3-|


E---------------------------------------------|
B--3-3-3-3-3--3-3-3-3-3--3-3-3-3-3--3-3-3-3-3-|
G---------------------------------------------|
D--2-2-2-2-2--2-2-2-2-2--2-2-2-2-2--2-2-2-2-2-|
A---------------------------------------------|
E--3-3-3-3-3--3-3-3-3-3--3-3-3-3-3--3-3-3-3-3-|


[Verse 2: Same as verse 1]


Chorus:

E--3-3-3-3-3-------------3-3-3-3-3------------|
B---------------------------------------------|
G---------------------------------------------|
D--2-2-2-2-2--2-2-2-2-2--2-2-2-2-2--2-2-2-2-2-| \
A--2-2-2-2-2--2-2-2-2-2--2-2-2-2-2--2-2-2-2-2-|  \
E---------------------------------------------|   \
                                                  | 2X
                                                  |
E---------------------------------------------  -- /
B--3-3-3-3-3-------------3-3-3-3-3------------ --- /
G------------------------------------------------- /
D--2-2-2-2-2--2-2-2-2-2--2-2-2-2-2--2-2-2-2-2----- /
A--2-2-2-2-2--2-2-2-2-2--2-2-2-2-2--2-2-2-2-2----- /
E------------------------------------------------- /


E---------------------------------------------|
B-------------1-1-1-1-1-----------------------|
G--2-2-2-2-2--2-2-2-2-2-----------------------| 2X
D--2-2-2-2-2--2-2-2-2-2--2-2-2-2-2------------|
A------------------------2-2-2-2-2--3-3-3-3-3-|
E-----------------------------------3-3-3-3-3-|


[Pre Verse]

[Verse 3: Same as Verse 1 twice]

[Chorus]

[Verse 4: Same as Verse 1]


End on:

E-------|
B-------|
G--2~~--
D--2~~--
A-------|
E-------|
Tap to rate this tab
 
# A B C D E F G H I J K L M N O P Q R S T U V W X Y Z