Song name
# A B C D E F G H I J K L M N O P Q R S T U V W X Y Z

Misc Unsigned Bands - Bullets Goes Better - Better Breath Again tab

Newest Acoustic Song By My band Its Awesome and Pretty Fun To Play it.
Most of our Songs Are Future Proyects But like so U can make an Idea.
So (T.i.E) means Til it ends...

Intro
e|-----------------------------------------------------------|
B|-----------------------------------------------------------|
G|-----------------------------------------------------------|
D|------------0-----------------0---------------------0------|
A|-------0------0----0------0-----0--------------0------0----|
E|-10-10---10-----10----9-9---9-----9-(x3)-12-12---12-----12-|(x2)

Right From Twelve-0 Intro To 9-0 Intro Ending.

e|-----------------------------------------------|
B|-----------------------------------------------|
G|-----------------------------------------------|
D|------------0------------0----------12---------|
A|-------0--------------0------0------12---------|
E|-12-12---12---12--9-9---9-----9-10-----12------|

 Bridge
e|-----------------------------------------------------------|
B|-----------------------------------------------------------|
G|-----------------------------------------------------------|
D|--------0--------------------0-------------------0---------|
A|-----0----0---0----------0----0---0----------0----0--------|
E|-3-3---3----3---(x2)-5-5---5----5---(x2)-7-7---7----7-(x2)-|

e|----------------------------------|-------------------------|
B|----------------------------------|-------------------------|
G|----------------------------------|-------------------------|
D|--0--------0---------0-------0----|---0---------------------|
A|----0--------0----12---12-10---10-|-9---(x4)----------------|
E|9-----9-10-----10-----------------|-------------------------|(x2)

Verse Gets Slows and Goes
e|-----------------------------------------|------------------|
B|-----------------------------------------|------------------|
G|-----------------------------------------|------------------|
D|--0----------0-----------0--------0------|-12----0--0--0----|
A|---0-----------0-----------0--------0----|-12----0--0--0----|
E|-3---3-(x2)-7----7(x2)-9-----9-10-----10-|------12-14-10----|

Chorus.

e|--------------------------------------------------------|
B|--------------------------------------------------------|
G|--------------------------------------------------------|
D|-5-5xx55-55-7-7xx77-77-5-5xx55-55-4-4xx44-44------------|
A|-5-5xx55-55-7-7xx77-77-4-4xx44-44-5-5xx55-55------------|
E|-3-3xx33-33-5-5xx55-55-5-5xx55-55-5-5xx55-55-(T.i.E)----|

e|--------------------------------------------|----|
B|--------------------------------------------|----|
G|--------------------------------------------|----|
D|-5-5-----7-7--------5-5-----7-7-------------|-7--|
A|-5---5---7---7---7--4---4---5---5---5-------|-5--|
E|-3-----3-5-----5----5-----5-7-----7----(x2)-|-7--|

Bridge 2
e|-----------------------|
B|-----------------------|
G|-----------------------|
D|----12-------12--------|
A|----12-------12--------|
E|-10----14-------9-10---|(x3)

Then Bridge Two Once

Chorus Again Twice.

Outro.
e|------------------------------|
B|-----9--------9-------7-------|
G|------------------------7-----|
D|---7---7----9---9---7---------|
A|-9--------7-------5-----------|
E|------------------------------|(x2)

e|-3---5---7-----8---5---7------|-------------------|
B|---0---5---0-----0---0--------|--0----------------|
G|------------------------------|--0----------------|
D|------------------------------|--7----------------|
A|-3---3---7---7-----5---5------|--7----------------|
E|------------------------------|--5----------------|
Tap to rate this tab
# A B C D E F G H I J K L M N O P Q R S T U V W X Y Z