Song name
# A B C D E F G H I J K L M N O P Q R S T U V W X Y Z

Misc Unsigned Bands - Krematory - Gore Obsession tab

this is another Krematory song. enjoy!

tuning EADGBE

Guitar 1 (clean)
E-----------------------------|
B-----------------------------|
G-----------------------------| play 8 times
D-----------------------------|
A---7-8-7---10-8---7-8-7---5--|
E-0-------0------0-------0----|

Guitar 2 (w/distortion play only after first 4 times of guitar 1)
E-----------------------------|
B-----------------------------|
G-----------------------------|
D-2---------------------------|
A-2---------------------------|
E-0---------------------------|

Guitar 1 & 2 (w/distortion)
pm-------|   pm------|    pm------|   pm------|
E-------------------------------------------------|
B-------------------------------------------------|
G-------------------------------------------------| play 4 times
D-------------------------------------------------|
A---------7h8---------10p8---------7h8---------5--|
E-0-0-0-0-----0-0-0-0------0-0-0-0-----0-0-0-0----|

Guitar 1 & 2
E----------|
B----------|
G----------|
D-5-4-3-3--|
A-3-2-1-1--|
E-3-2-1-1--|

Both guitars
 pm--|   pm--|    pm--|   pm--| pm--|   pm--|    pm--|   pm--|
E----------------------------------------------------------------|
B----------------------------------------------------------------|
G-------------------------------------------------------------8--|
D-------------------------------------------------------------6--|
A-----7h8-----10p8-----7h8-----5-----7h8-----10p8-----7h8-----6--|
E-0-0-----0-0------0-0-----0-0---0-0-----0-0------0-0-----0-0----|

 pm----------|   pm--------------|
E-----------------------------------------|
B-----------------------------------------|
G-----------------------------------------| play 4 times
D---------------------------------3-5-6-6-|
A-------------3-3-----------------1-3-4-4-|
E-0-0-0-0-0-0-1-1-0-0-0-0-0-0-0-0-1-3-4-4-|

E----------------------------------|
B----------------------------------|
G----------------------------------|
D-3-5-6-6-3-5-6-6-3-5-6-6-3-5-6-6--|
A-1-3-4-4-1-3-4-4-1-3-4-4-1-3-4-4--|
E-1-3-4-4-1-3-4-4-1-3-4-4-1-3-4-4--|

   pm--------------|   pm    pm    pm    pm  pm  pm  
E---------------------------------------------------|
B---------------------------------------------------|
G---------------------------------------------------|
D---------------------------------------------------| play 4 times
A-2-----------------7/6---6/5---5/4---4/3---3---3---|
E-0-0-0-0-0-0-0-0-0-5/4-0-4/3-0-3/2-0-2/1-0-1-0-1-0-|




and thats all i got so far. need to figure out a bit more but so far enjoy!
Tap to rate this tab
# A B C D E F G H I J K L M N O P Q R S T U V W X Y Z