Song name
# A B C D E F G H I J K L M N O P Q R S T U V W X Y Z

Misc Unsigned Bands - Half Chicken Half Cow - Crafting Scissors And Paper Mice tab

                   Crafting Scissors And Paper Mice

                                 by

                       !$---------------------$!
                       <*HALF CHICKEN HALF COW*>
                       !$---------------------$!

Standard Tuning

intro
|--------------------------------------|
|--------------------------------------|
|-0------------------------------------|
|-0--------------------------------0---|
|-0-------2-2-2-3-3-3-1-1-4-4-4-4-0--0-|
|-0-------------3-3-3-1-1-4-4-4-4---0--|

verse
|------------------------------|
|------------------------------|
|------------------------------|
|-2-2-2--------------------0---|
|-2-2-2-3-3-3-1-1-4-4-4-4-0--0-|
|-------3-3-3-1-1-4-4-4-4---0--|

chorus
|---------------------------|
|---------------------------|
|---------------------------|
|---------------------------|
|-5--4--3---2---6--5--4---3-|
|-5--4--3---2---6--5--4---3-|

|-------------------|
|-------------------|
|-------------------|
|--5--4--3--2--1--0-|
|-5--4--3--2--1--0--|
|5--4--3--2--1--0---|

verse
|------------------------------|
|------------------------------|
|------------------------------|
|-2-2-2--------------------0---|
|-2-2-2-3-3-3-1-1-4-4-4-4-0--0-|
|-------3-3-3-1-1-4-4-4-4---0--|

chorus
|---------------------------|
|---------------------------|
|---------------------------|
|---------------------------|
|-5--4--3---2---6--5--4---3-|
|-5--4--3---2---6--5--4---3-|

|-------------------|
|-------------------|
|-------------------|
|--5--4--3--2--1--0-|
|-5--4--3--2--1--0--|
|5--4--3--2--1--0---|
solo
|-------------------------------------------------------------|
|-------------------------------------------------------------|
|-----2/4-4-4-4-5-5\3-----------------------------------------|
|-2/4----------------6-7-7\9/6\8-8--------7-9-8-9-7-8---------|
|---------------------------------8-6\-------------------8-6\-|
|-------------------------------------------------------------|

verse
|------------------------------|
|------------------------------|
|------------------------------|
|-2-2-2--------------------0---|
|-2-2-2-3-3-3-1-1-4-4-4-4-0--0-|
|-------3-3-3-1-1-4-4-4-4---0--|

chorus
|---------------------------|
|---------------------------|
|---------------------------|
|---------------------------|
|-5--4--3---2---6--5--4---3-|
|-5--4--3---2---6--5--4---3-|

outro
|-------------------------------------|
|-------------------------------------|
|-------------------------------------|
|--5--4--3--2--1--0--1--2--3--2--1--0-|
|-5--4--3--2--1--0--1--2--3--2--1--0--|
|5--4--3--2--1--0--1--2--3--2--1--0---|
Tap to rate this tab
# A B C D E F G H I J K L M N O P Q R S T U V W X Y Z