Song name
# A B C D E F G H I J K L M N O P Q R S T U V W X Y Z

Misc Unsigned Bands - Trilogy Of A Nightmare - Starting To Fly tab

Help us improve GuitareTab! Take a short survey!
-------------------------------------------------------------------------------
		   Starting To Fly - Trilogy of a Nightmare
-------------------------------------------------------------------------------
Tabbed by: Anthony Nightmare (guitarist of the band)
Email: ajcooper@speakeasy.net

Tuning: Drop D

Guitar 1 - Anthony Nightmare (DADGBe)
Guitar 2 - Ryan Lawless (DADGBe)

Intro 1 (Guitar 1 Only)
e|-----------------------------------------------------------------|
B|-----------------------------------------------------------------|
G|----14----15----17----15----1414---------------------------------|
D|-00----00----00----00----00---------14----15----17----15----1414-| x6
A|---------------------------------00----00----00----00----00------|
D|-----------------------------------------------------------------|
PM ..    ..    ..    ..    ..      ..    ..    ..    ..    ..

Intro 2/Chorus (Both Guitars)
e|------------------------------------------------------------------------------------|
B|------------------11111111111111111111111111111111-10101010101010101010101010101010-|
G|-7777777777777777--X-X-X-X-X-X-X-X-X-X-X-X-X-X-X-X--X-X-X-X-X-X-X-X-X-X-X-X-X-X-X-X-|
D|-XXXXXXXXXXXXXXXX--8-8-8-8-8-8-8-8-8-8-8-8-8-8-8-8--7-7-7-7-7-7-7-7-7-7-7-7-7-7-7-7-|\
A|-5555555555555555-------------------------------------------------------------------| \
D|------------------------------------------------------------------------------------|  \
                                                                                         /  2x
e|--------------------------------------------------------------------|                 /
B|--------------------------------------------------------------------|                /
G|-7777777777777777-10101010101010101010101010101010-5555555555555555-|               /
D|-XXXXXXXXXXXXXXXX--X-X-X-X-X-X-X-X-X-X-X-X-X-X-X-X-XXXXXXXXXXXXXXXX-|              /
A|-5555555555555555--8-8-8-8-8-8-8-8-8-8-8-8-8-8-8-8-3333333333333333-|             /
D|--------------------------------------------------------------------|____________/

Verse 1 (Both Guitars)
e|---------------------------------------------------------------------|
B|---------------------------------------------------------------------|
G|---------------------------------------------------------------------|
D|-0000000000000000-8888888888888888-3333333333333333-7777777777777777-| 2x
A|-0000000000000000-8888888888888888-3333333333333333-7777777777777777-|
D|-0000000000000000-8888888888888888-3333333333333333-7777777777777777-|
PM ................ ................ ................ ................

Chorus (Both Guitars)
e|------------------------------------------------------------------------------------|
B|------------------11111111111111111111111111111111-10101010101010101010101010101010-|
G|-7777777777777777--X-X-X-X-X-X-X-X-X-X-X-X-X-X-X-X--X-X-X-X-X-X-X-X-X-X-X-X-X-X-X-X-|
D|-XXXXXXXXXXXXXXXX--8-8-8-8-8-8-8-8-8-8-8-8-8-8-8-8--7-7-7-7-7-7-7-7-7-7-7-7-7-7-7-7-|\
A|-5555555555555555-------------------------------------------------------------------| \
D|------------------------------------------------------------------------------------|  \
                                                                                         /  2x
e|--------------------------------------------------------------------|                 /
B|--------------------------------------------------------------------|                /
G|-7777777777777777-10101010101010101010101010101010-5555555555555555-|               /
D|-XXXXXXXXXXXXXXXX--X-X-X-X-X-X-X-X-X-X-X-X-X-X-X-X-XXXXXXXXXXXXXXXX-|              /
A|-5555555555555555--8-8-8-8-8-8-8-8-8-8-8-8-8-8-8-8-3333333333333333-|             /
D|--------------------------------------------------------------------|____________/

Verse 2 (Both Guitars)
e|---------------------------------------------------------------------|
B|---------------------------------------------------------------------|
G|---------------------------------------------------------------------|
D|-0000000000000000-8888888888888888-3333333333333333-7777777777777777-| 2x
A|-0000000000000000-8888888888888888-3333333333333333-7777777777777777-|
D|-0000000000000000-8888888888888888-3333333333333333-7777777777777777-|
PM ................ ................ ................ ................

Solo (Guitar 1)
e|----------------------------------------------------------------------------------------------------------|
B|----------------------------------------------------------171921-21b22r21---------------------------------|
G|-14-14h15-15-17-15-14h15p14--------14h15p14--------141517-----------------19p17p15------------------------|
D|----------------------------171717----------151515---------------------------------14h15h17---------------|
A|--------------------------------------------------------------------------------------------14-12-11-9-7~-|
D|----------------------------------------------------------------------------------------------------------|
Solo (Guitar 2)
e|----------------------------------------------------------------------------------------------------------|
B|--------11-10---------------------------------------------------------------------------------------------|
G|------7------------7-10-5---------------------------------------------------------------------------------|
D|-0000---------0000--------0000---8-7-0000-------0000000000000000-88888888-33333333-77777777--9--7--6-4-2~-|
A|-0000---------0000--------0000-5-----0000-5-8-3-0000000000000000-88888888-33333333-77777777---------------|
D|-0000---------0000--------0000-------0000-------0000000000000000-88888888-33333333-77777777---------------|
PM ....         ....        ....       ....       ................ 

Bridge
e|-----------------12+~--------------7+~--------------------------------|
B|----------------------------------------------------7+~---------------|
G|----------------------------------------------------5+~---------------|
D|-0000000000000000--0000000000000000-0000000000000000-0000000000000000-| x4
A|-0000000000000000--0000000000000000-0000000000000000-0000000000000000-|
D|-0000000000000000--0000000000000000-0000000000000000-0000000000000000-|
PM ................  ................ ................ ................

Chorus (Both Guitars)
e|------------------------------------------------------------------------------------|
B|------------------11111111111111111111111111111111-10101010101010101010101010101010-|
G|-7777777777777777--X-X-X-X-X-X-X-X-X-X-X-X-X-X-X-X--X-X-X-X-X-X-X-X-X-X-X-X-X-X-X-X-|
D|-XXXXXXXXXXXXXXXX--8-8-8-8-8-8-8-8-8-8-8-8-8-8-8-8--7-7-7-7-7-7-7-7-7-7-7-7-7-7-7-7-|\
A|-5555555555555555-------------------------------------------------------------------| \
D|------------------------------------------------------------------------------------|  \
                                                                                         /  2x
e|--------------------------------------------------------------------|                 /
B|--------------------------------------------------------------------|                /
G|-7777777777777777-10101010101010101010101010101010-5555555555555555-|               /
D|-XXXXXXXXXXXXXXXX--X-X-X-X-X-X-X-X-X-X-X-X-X-X-X-X-XXXXXXXXXXXXXXXX-|              /
A|-5555555555555555--8-8-8-8-8-8-8-8-8-8-8-8-8-8-8-8-3333333333333333-|             /
D|--------------------------------------------------------------------|____________/

| /  slide up
| \  slide down
| h  hammer-on
| p  pull-off
| ~  vibrato
| +  harmonic
| x  Mute note
===============================================================================
Related for Trilogy Of A Nightmare - Starting To Fly tab