Song name
# A B C D E F G H I J K L M N O P Q R S T U V W X Y Z

Misc Unsigned Bands - Death By Donkey - Psychedelic Vibe tab

Verse
e|x-x5x-x5-x-x5x-x7|
b|x-x5x-x5-x-x5x-x7|
G|x-x5x-x5-x-x5x-x7|
D|x-xxx-xx-x-xxx-xx|
A|x-x-x-x--x-x-x-x-|
E|x-x-x-x--x-x-x-x-|

chorus
e|5-5-7-77-3-3-4-44--|
b|5-5-7-77-3-3-4-4-4-|
G|5-5-7-77-3-3-4-4--4|
D|-------------------|
A|-------------------|
E|-------------------|

Bridge
e|7-7-7-7-5-5-5-5-4-4-4-4-3-3-3-3|
b|7-7-7-7-5-5-5-5-4-4-4-4-3-3-3-3|
G|7-7-7-7-5-5-5-5-4-4-4-4-3-3-3-3|
D|x-x-x-x-x-x-x-x-x-x-x-x-x-x-x-x|
A|-------------------------------|
E|-------------------------------|

Outro
e|7-7-5-5-4-4-3-3-3|
b|7-7-5-5-4-4-3-3-3|
G|7-7-5-5-4-4-3-3-3|
D|x-x-x-x-x-x-x-x-x|
A|-----------------|
E|-----------------|

order
Verse x4
chorus x4
verse x8
chorus x4
bridge x3
chorus x6
outro x8

use wah-wah entire song   www.myspace.com/deathbydonky2
Tap to rate this tab
# A B C D E F G H I J K L M N O P Q R S T U V W X Y Z