Song name
# A B C D E F G H I J K L M N O P Q R S T U V W X Y Z

Misc Unsigned Bands - Black Mare - Ive Got Enough tab

black mare - i've got enough

intro
|----------------------------------|
|----------------------------------|
|----------------------------------|
|-777777777777-57--777777777777-57-|
|-777777777777-57--777777777777-57-|
|-555555555555-35--555555555555-35-|


then second guitar comes in and the first
keep on playing that untill the chorus

          |let ring|  
|----------------------------------|
|----------------------------------|
|-----55--77-----------55--77------|
|-77--55--77-------77--55--77------|
|-77--33--55-------77--33--55------|
|-55---------------55--------------|
i had enough of all this...........
i had enough of friends............
i had enough of my mum.............
and i had enough of my life........  (screaming)
chorus
both guitars playing
|---------------------|
|---------------------|
|----------5555-7777--|
|-77777777-5555-7777--|
|-77777777-3333-5555--|
|-55555555------------|
this is the story about my life....
i dont have any friends and i do not have mind
everyone i talk to just turn around
i just hate this world and i hate my life

then play on 5:th fret 16 times
 
2:nd verse

1:st guitar..
|----------------------------------|
|----------------------------------|
|----------------------------------|
|-777777777777-57--777777777777-57-|
|-777777777777-57--777777777777-57-|
|-555555555555-35--555555555555-35-|

2:nd guitar
|----------------------------------|
|----------------------------------|
|-----55--77-----------55--77------|
|-77--55--77-------77--55--77------|
|-77--33--55-------77--33--55------|
|-55---------------55--------------|
i had enough of all this...........
i had enough of friends............
i had enough of my mum.............
and i had enough of my life........  (screaming)

2:nd chorus

|---------------------|
|---------------------|
|----------5555-7777--|
|-77777777-5555-7777--|
|-77777777-3333-5555--|
|-55555555------------|
this is the story about my life....
i dont have any friends and i do not have mind
everyone i talk to just turn around
i just hate this world and i hate my life

there goes the solo...conection lost..hehe

and the outro is one more chorus..

|---------------------|
|---------------------|
|----------5555-7777--|
|-77777777-5555-7777--|
|-77777777-3333-5555--|
|-55555555------------|
this is the story about my life....
i dont have any friends and i do not have mind
everyone i talk to just turn around
i just hate this world and i hate my life

the end.... //black mare
for more info about the band check out
-->  www.blackmare.info.se  <--


Tap to rate this tab
# A B C D E F G H I J K L M N O P Q R S T U V W X Y Z