Song name
# A B C D E F G H I J K L M N O P Q R S T U V W X Y Z

Misc Unsigned Bands - Skinned Youth - Tanden Partner tab

[x = rake strings]
[.. = palm mute]
[/ = slide]

Intro:-


E----------------------------------------------------------------------|
B----------------------------------------------------------------------|
G--9-9-9-9-9-9-9-9--7-7-7-7-7-7-7-7--5-5-5-5-5-5-5-5-------------------|
D--9-9-9-9-9-9-9-9--7-7-7-7-7-7-7-7--5-5-5-5-5-5-5-5--5-5-5-5-5-5-5-5--|
A--7-7-7-7-7-7-7-7--5-5-5-5-5-5-5-5--3-3-3-3-3-3-3-3--5-5-5-5-5-5-5-5--|
E-----------------------------------------------------3-3-3-3-3-3-3-3--|

E----------------------------------------------------------------------|
B----------------------------------------------------------------------|
G--9-9-9-9-9-9-9-9--7-7-7-7-7-7-7-7--5-5-5-5-5-5-5-5-------------------|
D--9-9-9-9-9-9-9-9--7-7-7-7-7-7-7-7--5-5-5-5-5-5-5-5--5-5-5-5-5-5-5-5--|
A--7-7-7-7-7-7-7-7--5-5-5-5-5-5-5-5--3-3-3-3-3-3-3-3--5-5-5-5-5-5-5-5--|
E-----------------------------------------------------3-3-3-3-3-3-3-3--|

Verse 1:-

E------------------------------------------------------------|
B------------------------------------------------------------|
G--9-9-9-9-9-9-9-9-9-9-9-9-9-9--7-7-7-7-7-7-7-7-7-7-7-7-7-7--|
D--9-9-9-9-9-9-9-9-9-9-9-9-9-9--7-7-7-7-7-7-7-7-7-7-7-7-7-7--|
A--7-7-7-7-7-7-7-7-7-7-7-7-7-7--5-5-5-5-5-5-5-5-5-5-5-5-5-5--|
E------------------------------------------------------------|

E----------------------------------------------------------------|
B----------------------------------------------------------------|
G--5-5-5-5-5-5-5-5-5-5-5-5-5-5-----------------------------------|
D--5-5-5-5-5-5-5-5-5-5-5-5-5-5--x-x-5-5-x-x-5-5-x-x-5-5-x-x-5-5--|
A--3-3-3-3-3-3-3-3-3-3-3-3-3-3--x-x-5-5-x-x-5-5-x-x-5-5-x-x-5-5--|
E-------------------------------x-x-3-3-x-x-3-3-x-x-3-3-x-x-3-3--|

E------------------------------------------------------------|
B------------------------------------------------------------|
G--9-9-9-9-9-9-9-9-9-9-9-9-9-9--7-7-7-7-7-7-7-7-7-7-7-7-7-7--|
D--9-9-9-9-9-9-9-9-9-9-9-9-9-9--7-7-7-7-7-7-7-7-7-7-7-7-7-7--|
A--7-7-7-7-7-7-7-7-7-7-7-7-7-7--5-5-5-5-5-5-5-5-5-5-5-5-5-5--|
E------------------------------------------------------------|

E----------------------------------------------------------------|
B----------------------------------------------------------------|
G--5-5-5-5-5-5-5-5-5-5-5-5-5-5-----------------------------------|
D--5-5-5-5-5-5-5-5-5-5-5-5-5-5--x-x-5-5-x-x-5-5-x-x-5-5-x-x-5-5--|
A--3-3-3-3-3-3-3-3-3-3-3-3-3-3--x-x-5-5-x-x-5-5-x-x-5-5-x-x-5-5--|
E-------------------------------x-x-3-3-x-x-3-3-x-x-3-3-x-x-3-3--|

Chorus:-

E----------------------------------------------------------------------------|
B----------------------------------------------------------------------------|
G--9-9-9-9-9-9-9-9-9-9-9-9---------------------------5-5-5-5-5-5-5-5-5-5-5-5-|
D--9-9-9-9-9-9-9-9-9-9-9-9--7-7-7-7-7-7-7-7-7-7-7-7--5-5-5-5-5-5-5-5-5-5-5-5-|
A--7-7-7-7-7-7-7-7-7-7-7-7--7-7-7-7-7-7-7-7-7-7-7-7--3-3-3-3-3-3-3-3-3-3-3-3-|
E---------------------------5-5-5-5-5-5-5-5-5-5-5-5--------------------------|

E---------------------------|
B---------------------------|
G---------------------------|
D--5-5-5-5-5-5-5-5-5-5-5-5--|
A--5-5-5-5-5-5-5-5-5-5-5-5--|
E--3-3-3-3-3-3-3-3-3-3-3-3--|

E----------------------------------------------------------------------------|
B----------------------------------------------------------------------------|
G--9-9-9-9-9-9-9-9-9-9-9-9---------------------------5-5-5-5-5-5-5-5-5-5-5-5-|
D--9-9-9-9-9-9-9-9-9-9-9-9--7-7-7-7-7-7-7-7-7-7-7-7--5-5-5-5-5-5-5-5-5-5-5-5-|
A--7-7-7-7-7-7-7-7-7-7-7-7--7-7-7-7-7-7-7-7-7-7-7-7--3-3-3-3-3-3-3-3-3-3-3-3-|
E---------------------------5-5-5-5-5-5-5-5-5-5-5-5--------------------------|

E---------------------------|
B---------------------------|
G---------------------------|
D--5-5-5-5-5-5-5-5-5-5-5-5--|
A--5-5-5-5-5-5-5-5-5-5-5-5--|
E--3-3-3-3-3-3-3-3-3-3-3-3--|

Verse 2:- (repeat Verse 1)

E------------------------------------------------------------|
B------------------------------------------------------------|
G--9-9-9-9-9-9-9-9-9-9-9-9-9-9--7-7-7-7-7-7-7-7-7-7-7-7-7-7--|
D--9-9-9-9-9-9-9-9-9-9-9-9-9-9--7-7-7-7-7-7-7-7-7-7-7-7-7-7--|
A--7-7-7-7-7-7-7-7-7-7-7-7-7-7--5-5-5-5-5-5-5-5-5-5-5-5-5-5--|
E------------------------------------------------------------|

E----------------------------------------------------------------|
B----------------------------------------------------------------|
G--5-5-5-5-5-5-5-5-5-5-5-5-5-5-----------------------------------|
D--5-5-5-5-5-5-5-5-5-5-5-5-5-5--x-x-5-5-x-x-5-5-x-x-5-5-x-x-5-5--|
A--3-3-3-3-3-3-3-3-3-3-3-3-3-3--x-x-5-5-x-x-5-5-x-x-5-5-x-x-5-5--|
E-------------------------------x-x-3-3-x-x-3-3-x-x-3-3-x-x-3-3--|

E------------------------------------------------------------|
B------------------------------------------------------------|
G--9-9-9-9-9-9-9-9-9-9-9-9-9-9--7-7-7-7-7-7-7-7-7-7-7-7-7-7--|
D--9-9-9-9-9-9-9-9-9-9-9-9-9-9--7-7-7-7-7-7-7-7-7-7-7-7-7-7--|
A--7-7-7-7-7-7-7-7-7-7-7-7-7-7--5-5-5-5-5-5-5-5-5-5-5-5-5-5--|
E------------------------------------------------------------|

E----------------------------------------------------------------|
B----------------------------------------------------------------|
G--5-5-5-5-5-5-5-5-5-5-5-5-5-5-----------------------------------|
D--5-5-5-5-5-5-5-5-5-5-5-5-5-5--x-x-5-5-x-x-5-5-x-x-5-5-x-x-5-5--|
A--3-3-3-3-3-3-3-3-3-3-3-3-3-3--x-x-5-5-x-x-5-5-x-x-5-5-x-x-5-5--|
E-------------------------------x-x-3-3-x-x-3-3-x-x-3-3-x-x-3-3--|

Bridge:-

E-------------------------------------------------------------------|
B-------------------------------------------------------------------|
G--9-9-9-9-9-9-9-9-9-9-9-9-9-9-9-9--7-7-7-7-7-7-7-7-7-7-7-7-7-7-7-7-|
D--9-9-9-9-9-9-9-9-9-9-9-9-9-9-9-9--7-7-7-7-7-7-7-7-7-7-7-7-7-7-7-7-|
A--7-7-7-7-7-7-7-7-7-7-7-7-7-7-7-7--5-5-5-5-5-5-5-5-5-5-5-5-5-5-5-5-|
E-------------------------------------------------------------------|
PM................................

Chorus:-

E----------------------------------------------------------------------------|
B----------------------------------------------------------------------------|
G--9-9-9-9-9-9-9-9-9-9-9-9---------------------------5-5-5-5-5-5-5-5-5-5-5-5-|
D--9-9-9-9-9-9-9-9-9-9-9-9--7-7-7-7-7-7-7-7-7-7-7-7--5-5-5-5-5-5-5-5-5-5-5-5-|
A--7-7-7-7-7-7-7-7-7-7-7-7--7-7-7-7-7-7-7-7-7-7-7-7--3-3-3-3-3-3-3-3-3-3-3-3-|
E---------------------------5-5-5-5-5-5-5-5-5-5-5-5--------------------------|

E---------------------------|
B---------------------------|
G---------------------------|
D--5-5-5-5-5-5-5-5-5-5-5-5--|
A--5-5-5-5-5-5-5-5-5-5-5-5--|
E--3-3-3-3-3-3-3-3-3-3-3-3--|

E----------------------------------------------------------------------------|
B----------------------------------------------------------------------------|
G--9-9-9-9-9-9-9-9-9-9-9-9---------------------------5-5-5-5-5-5-5-5-5-5-5-5-|
D--9-9-9-9-9-9-9-9-9-9-9-9--7-7-7-7-7-7-7-7-7-7-7-7--5-5-5-5-5-5-5-5-5-5-5-5-|
A--7-7-7-7-7-7-7-7-7-7-7-7--7-7-7-7-7-7-7-7-7-7-7-7--3-3-3-3-3-3-3-3-3-3-3-3-|
E---------------------------5-5-5-5-5-5-5-5-5-5-5-5--------------------------|

E---------------------------|
B---------------------------|
G---------------------------|
D--5-5-5-5-5-5-5-5-5-5-5-5--|
A--5-5-5-5-5-5-5-5-5-5-5-5--|
E--3-3-3-3-3-3-3-3-3-3-3-3--|

Outro:-

E-----------------------------|
B-----------------------------|
G-----------------------------|
D--2-2-2/--5-5/--7-7/--9-9-9--|
A--2-2-2/--5-5/--7-7/--9-9-9--|
E--0-0-0/--3-3/--5-5/--7-7-7--|

E-----------------------------|
B-----------------------------|
G-----------------------------|
D--2-2-2/--5-5/--7-7/--9-9-9--|
A--2-2-2/--5-5/--7-7/--9-9-9--|
E--0-0-0/--3-3/--5-5/--7-7-7--|

E-----------------------------|
B-----------------------------|
G-----------------------------|
D--2-2-2/--5-5/--7-7/--9-9-9--|
A--2-2-2/--5-5/--7-7/--9-9-9--|
E--0-0-0/--3-3/--5-5/--7-7-7--|

E-----------------------------|
B-----------------------------|
G-----------------------------|
D--2-2-2/--5-5/--7-7/--9-9-9--|
A--2-2-2/--5-5/--7-7/--9-9-9--|
E--0-0-0/--3-3/--5-5/--7-7-7--|

End on:-

E-----|
B-----|
G--9--|
D--9--|
A--7--|
E-----|

Song order:-

Intro
Verse
Chorus
Verse
Bridge
Chorus
Outro

Lyrics:-

Verse

Looking back at the start, now she has gone
I guess my friends were right along
Being at the end I can truly say

No way was it worth the damage caused
I never suspected beneath the surface flaws
Is it too late to start again?

Chorus

Not a matter of why
Not a matter of when
Doesnt matter how hard you might try
Gold will turn to shit in the end

Not a matter of why n
Not a matter of when
Doesnt matter how hard you might cry
You'll have nothing in the end

Verse 2

She didnt like him, not my fault
You'll regret this is what I was taught
By the ones who have regretted before
I didn't listen, nobody ever will
At the time it didn't seem like that big a deal
Everybody will ignore the warnings

Bridge

What did he expect?
I'll laugh at the boy whos next

Chorus

Not a matter of why
Not a matter of when
Doesnt matter how hard you might try
Gold will turn to shit in the end

Not a matter of why n
Not a matter of when
Doesnt matter how hard you might cry
You'll have nothing in the end
Tap to rate this tab
# A B C D E F G H I J K L M N O P Q R S T U V W X Y Z