Song name
# A B C D E F G H I J K L M N O P Q R S T U V W X Y Z

Misc Unsigned Bands - Scarlet Sunrise - Story Of A Geenack Man tab

Song: Story Of A Geenack Man
Band: Scarlet Sunrise
Tuning: Drop D (DADGBE)

E---------------------------------------------------------------------------|
B-------0-----0-----------1-----1---0--------0------0---------0---0h1p0---0-|
G-----0-----0---0-------0-----0---0--------0------0---0-----0---0-------2---|
D---2-----2-------2---------------------------------------------------------|
A---------------------3-----3-----------------------------------------------|
D---------------------------------------5-------5-------5-4-----------------|

E---------------------------------------------------------------------------|
B-------0-----0-----------1-----1---0--------0------0---------0---0h1p0---0-|
G-----0-----0---0-------0-----0---0--------0------0---0-----0---0-------2---|
D---2-----2-------2---------------------------------------------------------|
A---------------------3-----3-----------------------------------------------|
D---------------------------------------5-------5-------5-4-----------------|

E-----------0----------------3---------------7----------------5------------|
B-------0-----0----------1-----1---0-----0-----0---0------0-----0---0------|
G-----0---0-----0------0---0-----0-----0---0-----0------0---0-----0--------|
D---2-------------2--------------------------------------------------------|
A--------------------3-----------------------------------------------------|
D-------------------------------------5---------------4--------------------|

E---------------------------------------------------------------------------|
B-------0-----0-----------1-----1---0--------0------0---------0---0h1p0---0-|
G-----0-----0---0-------0-----0---0--------0------0---0-----0---0-------2---|
D---2-----2-------2---------------------------------------------------------|
A---------------------3-----3-----------------------------------------------|
D---------------------------------------5-------5-------5-4-----------------|

E---------------------------------------------------------------------------|
B---------------------------------------------------------------------------|
G---------------------------------------------------------------------------|
D---9-9-9-9-9-9-9-9---5-5-5-5-5-5-5-5---5-5-5-5-5-5-5-5---4-4-4-4-4-4-4-4---|
A---7-7-7-7-7-7-7-7---3-3-3-3-3-3-3-3---5-5-5-5-5-5-5-5---4-4-4-4-4-4-4-4---|
D---------------------------------------5-5-5-5-5-5-5-5---4-4-4-4-4-4-4-4---|
  This is the story of a geenack man,  I found out what its like to be a man
E---------------------------------------------------------------------------|
B---------------------------------------------------------------------------|
G---------------------------------------------------------------------------|
D---9-9-9-9-9-9-9-9---5-5-5-5-5-5-5-5---5-5-5-5-5-5-5-5---4-4-4-4-4-4-4-4---|
A---7-7-7-7-7-7-7-7---3-3-3-3-3-3-3-3---5-5-5-5-5-5-5-5---4-4-4-4-4-4-4-4---|
D---------------------------------------5-5-5-5-5-5-5-5---4-4-4-4-4-4-4-4---|
      Ryan has red hair                  I would like my children back..
E---------------------------------------------------------------------------|
B---------------------------------------------------------------------------|
G---------------------------------------------------------------------------|
D---9-9-9-9-9-9-9-9---5-5-5-5-5-5-5-5---5-5-5-5-5-5-5-5---4-4-4-4-4-4-4-4---|
A---7-7-7-7-7-7-7-7---3-3-3-3-3-3-3-3---5-5-5-5-5-5-5-5---4-4-4-4-4-4-4-4---|
D---------------------------------------5-5-5-5-5-5-5-5---4-4-4-4-4-4-4-4---|
    A five piece bathing suit.          Water equals life minus pairs.
E---------------------------------------------------------------------------|
B---------------------------------------------------------------------------|
G---------------------------------------------------------------------------|
D---9-9-9-9-9-9-9-9---5-5-5-5-5-5-5-5---5-5-5-5-5-5-5-5---4-4-4-4-4-4-4-4---|
A---7-7-7-7-7-7-7-7---3-3-3-3-3-3-3-3---5-5-5-5-5-5-5-5---4-4-4-4-4-4-4-4---|
D---------------------------------------5-5-5-5-5-5-5-5---4-4-4-4-4-4-4-4---|
   Why is the moon made of cheese? Once again I would like my children back
E---------------------------------------------------------------------------|
B---------------------------------------------------------------------------|
G---------------------------------------------------------------------------|
D---9-9-9-9-9-9-9-9---5-5-5-5-5-5-5-5---5-5-5-5-5-5-5-5---4-4-4-4-4-4-4-4---|
A---7-7-7-7-7-7-7-7---3-3-3-3-3-3-3-3---5-5-5-5-5-5-5-5---4-4-4-4-4-4-4-4---|
D---------------------------------------5-5-5-5-5-5-5-5---4-4-4-4-4-4-4-4---|
   I have a black hole in my backyard,  joe stiff armed a sped kid,
E---------------------------------------------------------------------------|
B---------------------------------------------------------------------------|
G---------------------------------------------------------------------------|
D---9-9-9-9-9-9-9-9---5-5-5-5-5-5-5-5---5-5-5-5-5-5-5-5---4-4-4-4-4-4-4-4---|
A---7-7-7-7-7-7-7-7---3-3-3-3-3-3-3-3---5-5-5-5-5-5-5-5---4-4-4-4-4-4-4-4---|
D---------------------------------------5-5-5-5-5-5-5-5---4-4-4-4-4-4-4-4---|
   I went to the moon with jesus       this is a story of a geenack man
E-----------0----------------3---------------7----------------5------------|
B-------0-----0----------1-----1---0-----0-----0---0------0-----0---0------|
G-----0---0-----0------0---0-----0-----0---0-----0------0---0-----0--------|
D---2-------------2--------------------------------------------------------|
A--------------------3-----------------------------------------------------|
D-------------------------------------5---------------4--------------------|
   drink pop and build wheelchairs      a smell is actually tasty
E-----------0----------------3---------------7----------------5------------|
B-------0-----0----------1-----1---0-----0-----0---0------0-----0---0------|
G-----0---0-----0------0---0-----0-----0---0-----0------0---0-----0--------|
D---2-------------2--------------------------------------------------------|
A--------------------3-----------------------------------------------------|
D-------------------------------------5---------------4--------------------|
   I can move cows with my mind       ryan's desk has five legs
E-----------0----------------3---------------7----------------5------------|
B-------0-----0----------1-----1---0-----0-----0---0------0-----0---0------|
G-----0---0-----0------0---0-----0-----0---0-----0------0---0-----0--------|
D---2-------------2--------------------------------------------------------|
A--------------------3-----------------------------------------------------|
D-------------------------------------5---------------4--------------------|
  I went to the flea market           where I bought a flea circus
E-----------0----------------3---------------7----------------5------------|
B-------0-----0----------1-----1---0-----0-----0---0------0-----0---0------|
G-----0---0-----0------0---0-----0-----0---0-----0------0---0-----0--------|
D---2-------------2--------------------------------------------------------|
A--------------------3-----------------------------------------------------|
D-------------------------------------5---------------4--------------------|
  This is a book about poems         and yawns are definitely contagious
E---------------------------------------------------------------------------|
B---------------------------------------------------------------------------|
G---------------------------------------------------------------------------|
D---9-9-9-9-9-9-9-9---5-5-5-5-5-5-5-5---5-5-5-5-5-5-5-5---4-4-4-4-4-4-4-4---|
A---7-7-7-7-7-7-7-7---3-3-3-3-3-3-3-3---5-5-5-5-5-5-5-5---4-4-4-4-4-4-4-4---|
D---------------------------------------5-5-5-5-5-5-5-5---4-4-4-4-4-4-4-4---|
   I have a pet       wookie            section 22's the 22nd section
E---------------------------------------------------------------------------|
B---------------------------------------------------------------------------|
G---------------------------------------------------------------------------|
D---9-9-9-9-9-9-9-9---5-5-5-5-5-5-5-5---5-5-5-5-5-5-5-5---4-4-4-4-4-4-4-4---|
A---7-7-7-7-7-7-7-7---3-3-3-3-3-3-3-3---5-5-5-5-5-5-5-5---4-4-4-4-4-4-4-4---|
D---------------------------------------5-5-5-5-5-5-5-5---4-4-4-4-4-4-4-4---|
  Jesus converted to be a jew           The letter J is a conspiracy
E---------------------------------------------------------------------------|
B---------------------------------------------------------------------------|
G--------------7--9--9b--9-9-9-9p7---9p7---7-7h9-7h9p7---7h9--7-7--7h9------|
D---------7--9--------------------h9----h9------------h9--------------------|
A---7--10-------------------------------------------------------------------|
D---------------------------------------------------------------------------|

E---------7-8-10-10/12--12-12-12--10-10--12-12-14-12--10-10-10-12-14-12-10--|
B--7-8-10-------------------------------------------------------------------|
G---------------------------------------------------------------------------|
D---------------------------------------------------------------------------|
A---------------------------------------------------------------------------|
D---------------------------------------------------------------------------|

E--12-12--14-15-14--------------------------------------------------12-15-15-|
B------------------15--13-12--12h13p12-----12--------------12-13-15----------|
G--------------------------------------h14----14-12--12h14-------------------|
D----------------------------------------------------------------------------|
A----------------------------------------------------------------------------|
D----------------------------------------------------------------------------|

E-----------12h15p12---------12h15p12----------12h15p12---15^^--------------|
B--12h15p12---------12h15p12---------12h15p12G------------------------------|
G---------------------------------------------------------------------------|
D---------------------------------------------------------------------------|
A---------------------------------------------------------------------------|
D---------------------------------------------------------------------------|

E--15-15-15--14-(12)-------15-15-14-----------------------------------------|
B-----------------------------------15-15-----(15^^)------------------------|
G---------------------------------------------------------------------------|
D---------------------------------------------------------------------------|
A---------------------------------------------------------------------------|
D---------------------------------------------------------------------------|

E--3-2-0-3-2-0-3-2-3-2-0-3-2-0-3-2-3-2-0-3-2-0-3-2-3-2-0-3-2----------------|
B------------------------------------------------------------(3)------------|
G---------------------------------------------------------------------------|
D---------------------------------------------------------------------------|
A---------------------------------------------------------------------------|
D---------------------------------------------------------------------------|


E--3-2-0-3-2-0-3-2-3-2-0-3-2-0-3-2-3-2-0-3-2-0-3-2-3-2-0-3-2----------------|
B------------------------------------------------------------(3)------------|
G---------------------------------------------------------------------------|
D---------------------------------------------------------------------------|
A---------------------------------------------------------------------------|
D---------------------------------------------------------------------------|

E---10^^ 10-10-10--8-7--7h8p7-5-5h7--8-7-5h7-8-7-7^--7-7-7-5/3-2h3p2p0------|
B---------------------------------------------------------------------------|
G---------------------------------------------------------------------------|
D---------------------------------------------------------------------------|
A---------------------------------------------------------------------------|
D---------------------------------------------------------------------------|

E---12--14--12--------------------------------------------------------------|
B--------------12h13-13^13--12-12-------------------------------------------|
G---------------------------------------------------------------------------|
D---------------------------------------------------------------------------|
A---------------------------------------------------------------------------|
D---------------------------------------------------------------------------|

E---------------------------------------------------------------------------|
B---------------------------------------------------------------------------|
G---------------------------------------------------------------------------|
D---9-9-9-9-9-9-9-9---5-5-5-5-5-5-5-5---5-5-5-5-5-5-5-5---4-4-4-4-4-4-4-4---|
A---7-7-7-7-7-7-7-7---3-3-3-3-3-3-3-3---5-5-5-5-5-5-5-5---4-4-4-4-4-4-4-4---|
D---------------------------------------5-5-5-5-5-5-5-5---4-4-4-4-4-4-4-4---|
  I have a black hole in my backyard    joe stiff-armed a sped kid
E---------------------------------------------------------------------------|
B---------------------------------------------------------------------------|
G---------------------------------------------------------------------------|
D---9-9-9-9-9-9-9-9---5-5-5-5-5-5-5-5---5-5-5-5-5-5-5-5---4-4-4-4-4-4-4-4---|
A---7-7-7-7-7-7-7-7---3-3-3-3-3-3-3-3---5-5-5-5-5-5-5-5---4-4-4-4-4-4-4-4---|
D---------------------------------------5-5-5-5-5-5-5-5---4-4-4-4-4-4-4-4---|
  I went to the moon with jesus.       this is the story of a geenack man
E---------------------------------------------------------------------------|
B-------0-----0-----------1-----1---0--------0------0---------0---0h1p0---0-|
G-----0-----0---0-------0-----0---0--------0------0---0-----0---0-------2---|
D---2-----2-------2---------------------------------------------------------|
A---------------------3-----3-----------------------------------------------|
D---------------------------------------5-------5-------5-4-----------------|
  That was the story of a geenack man, I'm lacking what it means to be a man
E---------------------------------------------------------------------------|
B-------0-----0-----------1-----1---0--------0------0---------0---0h1p0---0-|
G-----0-----0---0-------0-----0---0--------0------0---0-----0---0-------2---|
D---2-----2-------2---------------------------------------------------------|
A---------------------3-----3-----------------------------------------------|
D---------------------------------------5-------5-------5-4-----------------|
My arm's tired so I put it to bed once again I would like my children back
E-----------0----------------3---------------7----------------5------------|
B-------0-----0----------1-----1---0-----0-----0---0------0-----0---0------|
G-----0---0-----0------0---0-----0-----0---0-----0------0---0-----0--------|
D---2-------------2--------------------------------------------------------|
A--------------------3-----------------------------------------------------|
D-------------------------------------5---------------4--------------------|

E---------------------------------------------------------------------------|
B-------0-----0-----------1-----1---0--------0------0---------0---0h1p0---0-|
G-----0-----0---0-------0-----0---0--------0------0---0-----0---0-------2---|
D---2-----2-------2---------------------------------------------------------|
A---------------------3-----3-----------------------------------------------|
D---------------------------------------5-------5-------5-4-----------------|

E---0----------------------------------------------------------------------|
B---0----------------------------------------------------------------------|
G---0----------------------------------------------------------------------|
D---2----------------------------------------------------------------------|
A---2----------------------------------------------------------------------|
D--------------------------------------------------------------------------|

Song Written By: Nik Pankow and Mat Francis, if you have any questions email
me at shmokino_shaggy@hotmail.com
Tap to rate this tab
# A B C D E F G H I J K L M N O P Q R S T U V W X Y Z