Song name
# A B C D E F G H I J K L M N O P Q R S T U V W X Y Z

Misc Unsigned Bands - Blades - Ouch tab

  
 
  Artist:Blades
  Song Title:Ouch
  Tabbed by:me
 
  E   A2 F#m G#m  B  C#m
 -0- -0- -2- -4- -2- -4-
 -0- -0- -2- -4- -2- -5-
 -1- -2- -2- -4- -4- -6-
 -2- -2- -4- -6- -4- -6-
 -2- -2- -4- -6- -2- -4-
 -0- -x- -2- -4- -x- -x-
 
 Intro: E-F#m (3x) E-E

 e-----------------------|    |----------------------|
 b-----------------------|    |----------------------|
 g-8/9-8/9-8/9-8/9-11----|(3x)|-8/9-8/9-8/9----------|
 d-x-x-x-x-x-x-x-x--x-9--|    |-x-x-x-x-x-x----------|
 a-6/7-6/7-6/7-6/7--9-x--|    |-6/7-6/7-6/7----------|
 e--------------------7--|    |----------------------|
 
 Verse 1:
      E       A2  E          A2
 Oh niloko mo ako Ouch ang sakit
   F#m                  G#m                A2               B
 I have to move on sabi ng friendster ko I have to get over you
   E              A2    E              A2
 Sinugatan mo ang heart Ouch it's very deep
 F#m                  G#m
 Sabi mo noon I'm the one your only one
  A2                          B
 Bakit ngayon you left me all alone
 Chorus:
   C#m                         G#m  
 I have to let go kung yan ang gusto mo
             A2                           E
 It's better be this way It's time to let go
     C#m                          G#m
 And when the time comes wala ng sisihan
      A2     
 Nakarecover na ako d'yan ka na
 
 E-F#m-E-E

 e---------------------------------------------------|
 b---------------------------------------------------|
 g-8/9-8/9-8/9-8/9-11---8/9-8/9-8/9------------------|
 d-x-x-x-x-x-x-x-x--x-9-x-x-x-x-x-x------------------|
 a-6/7-6/7-6/7-6/7--9-x-6/7-6/7-6/7------------------|
 e--------------------7------------------------------|
 
 Verse 2:
        E               A2    E             A2
 Just remember ang pain na'to Ouch ang masasabi mo
     F#m               G#m
 And now it's my turn ipapasa ko sa'yo
 A2                     B
 All the pain na ginawa mo
 (Repeat Chorus)
 
 E-F#m (4x)
 
 e-------------------------------|    e------------------------|
 b-------------------------------|    b------------------------|
 g-8/9-8/9-8/9-8/9-11------------|(3x)g-8/9-8/9-8/9-8/9-9------| 
 d-x-x-x-x-x-x-x-x--x-9----------|    d-x-x-x-x-x-x-x-x-x-9----|
 a-6/7-6/7-6/7-6/7--9-x----------|    a-6/7-6/7-6/7-6/7-7-x----|
 e--------------------7----------|    e-------------------7----|
 Adlib:
 C#m-G#m-A2-E (2X)
 C#m-G#m-A2-B

 (Repeat Chorus)
 (C#m-G#m-A2-E)
 (C#m-G#m-A2-B)
 
 (Repeat Chorus)
  
 E-F#m (3x) E-E
 
 e-----------------------|    e---------------------|
 b-----------------------|    b---------------------|
 g-8/9-8/9-8/9-8/9-1-----|(3x)g-8/9-8/9-8/9---------|
 d-x-x-x-x-x-x-x-x--x-9--|    d-x-x-x-x-x-x---------|
 a-6/7-6/7-6/7-6/7--9-x--|    a-6/7-6/7-6/7---------|
 e--------------------7--|    e---------------------|

 

 



   
Tap to rate this tab
# A B C D E F G H I J K L M N O P Q R S T U V W X Y Z