Song name
# A B C D E F G H I J K L M N O P Q R S T U V W X Y Z

Misc Unsigned Bands - Solid Overdose - Rockstar Dreams tab

-------------------------------------------------------------------------------
			     Rockstar Dreams - Solid Overdose
-------------------------------------------------------------------------------
Tabbed by: Solid overdose
Email: ingemar.m@passagen.se

Tuning: EADGBe

Intro - 2nd guitar

e|--------------------------------------------------------------|
B|--------------------------------------------------------------|
G|--------5-5-5-------------------------------------------------|
D|-2-2-2--3-3-3--5-5-5--7-7-7-----------------------------------|  x3
A|-2-2-2--3-3-3--3-3-3--5-5-5-----------------------------------|
E|-0-0-0---------3-3-3--5-5-5-----------------------------------|

e|--------------------------------------------------------------|
B|--------------------------------------------------------------|
G|--------5-5-5-------------------------------------------------|
D|-2-2-2--3-3-3--5-5-5-5-5-5-5-5-5--7-7-7-7-7-7-7-7--2----------|  
A|-2-2-2--3-3-3--3-3-3-3-3-3-3-3-3--5-5-5-5-5-5-5-5--2----------|
E|-0-0-0---------3-3-3-3-3-3-3-3-3--5-5-5-5-5-5-5-5--0----------|

Verse - 2nd guitar

e|--------------------------------------------------------------|
B|--------------------------------------------------------------|
G|-------------------5-5-5-5--7-7-7-7---------------------------|
D|-5-5-5-5--2-2-2-2--5-5-5-5--7-7-7-7---------------------------|  x4
A|-5-5-5-5--2-2-2-2--3-3-3-3--5-5-5-5---------------------------|
E|-3-3-3-3--0-0-0-0---------------------------------------------|

Chorus - 2nd guitar

e|--------------------------------------------------------------|
B|--------------------------------------------------------------|
G|--------5-5-5-------------------------------------------------|
D|-2-2-2--3-3-3--5-5-5--7-7-7-----------------------------------|  x3
A|-2-2-2--3-3-3--3-3-3--5-5-5-----------------------------------|
E|-0-0-0---------3-3-3--5-5-5-----------------------------------|

e|--------------------------------------------------------------|
B|--------------------------------------------------------------|
G|--------5-5-5-------------------------------------------------|
D|-2-2-2--3-3-3--5-5-5-5-5-5-5-5-5--7-7-7-7-7-7-7-7--2----------|  
A|-2-2-2--3-3-3--3-3-3-3-3-3-3-3-3--5-5-5-5-5-5-5-5--2----------|
E|-0-0-0---------3-3-3-3-3-3-3-3-3--5-5-5-5-5-5-5-5--0----------|

Verse - 2nd guitar

e|--------------------------------------------------------------|
B|--------------------------------------------------------------|
G|-------------------5-5-5-5--7-7-7-7---------------------------|
D|-5-5-5-5--2-2-2-2--5-5-5-5--7-7-7-7---------------------------|  x4
A|-5-5-5-5--2-2-2-2--3-3-3-3--5-5-5-5---------------------------|
E|-3-3-3-3--0-0-0-0---------------------------------------------|

Bridge - 1st guitar

e|-0-0-2-----3-3-2------2-2-3------5-5-3------------------------|
B|--------------------------------------------------------------|
G|--------------------------------------------------------------|
D|--------------------------------------------------------------| Play this
A|--------------------------------------------------------------| the rest 
E|--------------------------------------------------------------| of the song

Bridge - 2nd guitar

e|-------------------------------------------------------------------|
B|-------------------------------------------------------------------|
G|-----------------5-5-5-5-5-5-5-5-----------------------------------|
D|-2-2-2-2-2-2-2-2-3-3-3-3-3-3-3-3-5-5-5-5-5-5-5-5--7-7-7-7-7-7-7-7--| play this  
A|-2-2-2-2-2-2-2-2-3-3-3-3-3-3-3-3-5-5-5-5-5-5-5-5--7-7-7-7-7-7-7-7--| the rest of
E|-0-0-0-0-0-0-0-0-----------------3-3-3-3-3-3-3-3--5-5-5-5-5-5-5-5--| the song

| /  slide up
| \  slide down
| h  hammer-on
| p  pull-off
| ~  vibrato
| +  harmonic
| x  Mute note
===============================================================================
Tap to rate this tab
# A B C D E F G H I J K L M N O P Q R S T U V W X Y Z