Song name
# A B C D E F G H I J K L M N O P Q R S T U V W X Y Z

Misc Unsigned Bands - Mattkilla Inc - Death Jam tab

DEATH JAM by Mattkilla, Inc.		Tabbed by Matthew Allen

Guitar is tuned to drop to D (D, A, D, G, B, E).  Whatever is in parenthesis, palm mute. 
Everything else play regular.


 INTRO:
E|----------------------------------------------|
B|----------------------------------------------|
G|----------------------------------------------|
D|---0-0-0-0--(2-2-2)--3-3-3-3-3--5-5--3-3--2---|
A|---0-0-0-0--(2-2-2)--3-3-3-3-3--5-5--3-3--2---|
D|---0-0-0-0--(2-2-2)--3-3-3-3-3--5-5--3-3--2---|    Repeat three times.

 RIFF 1:
E|------------------------------------------|
B|------------------------------------------|
G|------------------------------------------|
D|---0-0-0--0-0-0--0-0--0-0-0--0-0-0--0-0---|
A|---0-0-0--0-0-0--0-0--0-0-0--0-0-0--0-0---|
D|---0-0-0--0-0-0--0-0--0-0-0--0-0-0--0-0---|

 (Continued)
E|-----------------------------------------|
B|-----------------------------------------|
G|-----------------------------------------|
D|---3-3-3--3-3-3--3-3/5-5-5--5-5-5--5-5---|
A|---3-3-3--3-3-3--3-3/5-5-5--5-5-5--5-5---|
D|---3-3-3--3-3-3--3-3/5-5-5--5-5-5--5-5---|	 Repeat twice.

 RIFF 2:
E|------------------------------|
B|------------------------------|
G|------------------------------|
D|---2-2-2-2-2--3--5\2----------|
A|---2-2-2-2-2--3--5\2----------|
D|---2-2-2-2-2--3--5\2----------|      Repeat four times.
Play Riff 1 twice.
Play Riff 2 four times.

 RIFF 3:
E|--------------------------------------------|
B|--------------------------------------------|
G|--------------------------------------------|
D|---(0-0-0--0-0-0--0-0--0-0-0--0-0-0--0-0)---|
A|---(0-0-0--0-0-0--0-0--0-0-0--0-0-0--0-0)---|
D|---(0-0-0--0-0-0--0-0--0-0-0--0-0-0--0-0)---|

 (Continued)
E|-------------------------------------------|
B|-------------------------------------------|
G|-------------------------------------------|
D|---(3-3-3--3-3-3--3-3/5-5-5--5-5-5--5-5)---|
A|---(3-3-3--3-3-3--3-3/5-5-5--5-5-5--5-5)---|
D|---(3-3-3--3-3-3--3-3/5-5-5--5-5-5--5-5)---|	 Repeat twice.


 RIFF 4:
E|-------------------------------------------------------|
B|-------------------------------------------------------|
G|-------------------------------------------------------|
D|---0-(0-0)--0-(0-0)--0-(0)--0-(0-0)--0-(0-0)--0-(0)----|
A|---0-(0-0)--0-(0-0)--0-(0)--0-(0-0)--0-(0-0)--0-(0)----|
D|---0-(0-0)--0-(0-0)--0-(0)--0-(0-0)--0-(0-0)--0-(0)----|

 (Continued)
E|-----------------------------------------------------|
B|-----------------------------------------------------|
G|-----------------------------------------------------|
D|---3-(3-3)--3-(3-3)--3-(3)/5-(5-5)--5-(5-5)--5-(5)---|
A|---3-(3-3)--3-(3-3)--3-(3)/5-(5-5)--5-(5-5)--5-(5)---|
D|---3-(3-3)--3-(3-3)--3-(3)/5-(5-5)--5-(5-5)--5-(5)---|	 Repeat twice.
Play Riff 1 twice.
Play Riff 2 four times.

 OUTRO:
E|-----------------------------------------------|
B|-----------------------------------------------|
G|-----------------------------------------------|
D|---0-0-(0-0)--2-2-(2)--3-3-(3-3-3)--5-5--3-3---|
A|---0-0-(0-0)--2-2-(2)--3-3-(3-3-3)--5-5--3-3---|
D|---0-0-(0-0)--2-2-(2)--3-3-(3-3-3)--5-5--3-3---|	  Repeat twice.

 (Continued)
E|--------------------------------------------------|
B|----------------------------------------------G|--|
D|---(0-0-0-0--2-2-2--3-3-3-3-3--5-5--3-3)--0-------|
A|---(0-0-0-0--2-2-2--3-3-3-3-3--5-5--3-3)--0-------|
D|---(0-0-0-0--2-2-2--3-3-3-3-3--5-5--3-3)--0-------|

Enjoy!
www.Mattkillainc.com
Tap to rate this tab
# A B C D E F G H I J K L M N O P Q R S T U V W X Y Z