Song name
# A B C D E F G H I J K L M N O P Q R S T U V W X Y Z

Misc Unsigned Bands - Morning Becomes Electric - Untitled tab

Help us improve GuitareTab! Take a short survey!
e---------------------------|---------------------------------|
B---------------------------|---------------------------------|
G---------------------------|---------------------------------|
D-------7-7-7-------5-5-5/7-|-------7-7-7\5--------5-5-5/7----|
A-0-0-0-------0-0-0---------|-0-0-0----------0-0-0------------|
E---------------------------|---------------------------------|

e-----------------------------|--------------------------------|
B-----------------------------|--------------------------------|
G-----------------------------|--------------------------------|
D-------7-7-7\5-------5-5-5/7-|-------7-7-7\5-------5-5-5/7----|
A-----------------------------|--------------------------------|
E-0-0-0---------0-0-0---------|-0-0-0---------0-0-0------------|

e---------------------------|----------------------------------|
B---------------------------|----------------------------------|
G---------------------------|----------------------------------|
D-------7-7-7-------5-5-5/7-|------7-7-7\5-------5-5-5/7-------|
A-0-0-0-------0-0-0---------|----------------------------------|
E---------------------------|-0-0-0---------0-0-0--------------|


this is just a part of the song. it pretty much just repeats with a little variation at the end.





tabbed by nicholas d.
guitarist/bassist [morning becomes electric]
http://www.myspace.com/morningbecomeselectric
http://www.myspace.com/songsaboutbeingdead
Related for Morning Becomes Electric - Untitled tab