Song name
# A B C D E F G H I J K L M N O P Q R S T U V W X Y Z

Misc Unsigned Bands - The Neutralized - Bacon And Eggs tab

Standard tuning e B G D A E

BPM = 170

Hardcore Punk Tempo

Four stick clicks

Intro and PreVerse

e|----------------------------------------|
B|----------------------------------------|
G|---------9-9-9-9-11-11-11-11------------|
D|-7-7-7-7-9-9-9-9-11-11-11-11-11-11-12-12|
A|-7-7-7-7-7-7-7-7--9--9--9--9-11-11-12-12|
E|-5-5-5-5----------------------9--9-10-10|

e|----------------------------------------|
B|----------------------------------------|
G|---------9-9-9-9-11-11-11-11------------|
D|-7-7-7-7-9-9-9-9-11-11-11-11-11-11-12-12|
A|-7-7-7-7-7-7-7-7--9--9--9--9-11-11-12-12|
E|-5-5-5-5----------------------9--9-10-10|

e|----------------------------------------|
B|----------------------------------------|
G|---------9-9-9-9-11-11-11-11------------|
D|-7-7-7-7-9-9-9-9-11-11-11-11-11-11-12-12|
A|-7-7-7-7-7-7-7-7--9--9--9--9-11-11-12-12|
E|-5-5-5-5----------------------9--9-10-10|

e|----------------------------------------|
B|----------------------------------------|
G|---------9-9-9-9-11---------------------|
D|-7-7-7-7-9-9-9-9-11----------11----12---|
A|-7-7-7-7-7-7-7-7--9----------11----12---|
E|-5-5-5-5----------------------9----10---|

VERSE

e|-------------------------------------------------------->
B|-------------------------------------------------------->
G|-----------------9-9-9-9-9-9-9-9-11-11-11-11-11-11-11-11>
D|-7-7-7-7-7-7-7-7-9-9-9-9-9-9-9-9-11-11-11-11-11-11-11-11>
A|-7-7-7-7-7-7-7-7-7-7-7-7-7-7-7-7--9--9--9--9--9--9--9--9>
E|-5-5-5-5-5-5-5-5---------------------------------------->

e------------------------|
B------------------------|
G------------------------|
D-11-11-11-11-12-12-12-12|
A-11-11-11-11-12-12-12-12|
E--9--9--9--9-10-10-10-10|

e|-------------------------------------------------------->
B|-------------------------------------------------------->
G|-----------------9-9-9-9-9-9-9-9-11-11-11-11-11-11-11-11>
D|-7-7-7-7-7-7-7-7-9-9-9-9-9-9-9-9-11-11-11-11-11-11-11-11>
A|-7-7-7-7-7-7-7-7-7-7-7-7-7-7-7-7--9--9--9--9--9--9--9--9>
E|-5-5-5-5-5-5-5-5---------------------------------------->

e------------------------|
B------------------------|
G------------------------|
D-11-11-11-11-12-12-12-12|
A-11-11-11-11-12-12-12-12|
E--9--9--9--9-10-10-10-10|

e|-------------------------------------------------------->
B|-------------------------------------------------------->
G|-----------------9-9-9-9-9-9-9-9-11-11-11-11-11-11-11-11>
D|-7-7-7-7-7-7-7-7-9-9-9-9-9-9-9-9-11-11-11-11-11-11-11-11>
A|-7-7-7-7-7-7-7-7-7-7-7-7-7-7-7-7--9--9--9--9--9--9--9--9>
E|-5-5-5-5-5-5-5-5---------------------------------------->

e------------------------|
B------------------------|
G------------------------|
D-11-11-11-11-12-12-12-12|
A-11-11-11-11-12-12-12-12|
E--9--9--9--9-10-10-10-10|

e|-------------------------------------------------------->
B|-------------------------------------------------------->
G|-----------------9-9-9-9-9-9-9-9-11-11-11-11-11-11-11-11>
D|-7-7-7-7-7-7-7-7-9-9-9-9-9-9-9-9-11-11-11-11-11-11-11-11>
A|-7-7-7-7-7-7-7-7-7-7-7-7-7-7-7-7--9--9--9--9--9--9--9--9>
E|-5-5-5-5-5-5-5-5---------------------------------------->

e------------------------|
B------------------------|
G------------------------|
D-11-11-11-11-12-12-12-12|
A-11-11-11-11-12-12-12-12|
E--9--9--9--9-10-10-10-10|

CHORUS

e-------------------------------------------->
B-------------------------------------------->
G---------------------------------11-11-11-11>
D-9-9-9-9-11-11-11-11-12-12-12-12-11-11-11-11>
A-9-9-9-9-11-11-11-11-12-12-12-12--9--9--9--9>
E-7-7-7-7--9--9--9--9-10-10-10-10------------>

e---------------------------------------->
B---------------------------------------->
G---------------------------------9-9-9-9>
D-9-9-9-9-11-11-11-11-12-12-12-12-9-9-9-9>
A-9-9-9-9-11-11-11-11-12-12-12-12-7-7-7-7>
E-7-7-7-7--9--9--9--9-10-10-10-10-------->

e-------------------------------------------->
B-------------------------------------------->
G-------------11-11-11-11-9-9-9-9-14-14-14-14>
D-12-12-12-12-11-11-11-11-9-9-9-9-14-14-14-14>
A-12-12-12-12--9--9--9--9-7-7-7-7-12-12-12-12>
E-10-10-10-10-------------------------------->

e-------------------------------------------->
B-------------------------------------------->
G-------------11-11-11-11-------------------->
D-12-12-12-12-11-11-11-11-11-11-11-11-7-7-7-7>
A-12-12-12-12--9--9--9--9-11-11-11-11-7-7-7-7>
E-10-10-10-10--------------9--9--9--9-5-5-5-5>

PostChorus

e-------------------------------|
B-------------------------------|
G-------------------------------|
D-7-7-7-7-7-7-7-7-7-7-7-7-7--7--|
A-7-7-7-7-7-7-7-7-7-7-7-7-7--7--|
E-5-5-5-5-5-5-5-5-5-5-5-5-5--5--|

e|----------------------------------------|
B|----------------------------------------|
G|---------9-9-9-9-11-11-11-11------------|
D|-7-7-7-7-9-9-9-9-11-11-11-11-11-11-12-12|
A|-7-7-7-7-7-7-7-7--9--9--9--9-11-11-12-12|
E|-5-5-5-5----------------------9--9-10-10|

e|----------------------------------------|
B|----------------------------------------|
G|---------9-9-9-9-11-11-11-11------------|
D|-7-7-7-7-9-9-9-9-11-11-11-11-11-11-12-12|
A|-7-7-7-7-7-7-7-7--9--9--9--9-11-11-12-12|
E|-5-5-5-5----------------------9--9-10-10|

e|----------------------------------------|
B|----------------------------------------|
G|---------9-9-9-9-11-11-11-11------------|
D|-7-7-7-7-9-9-9-9-11-11-11-11-11-11-12-12|
A|-7-7-7-7-7-7-7-7--9--9--9--9-11-11-12-12|
E|-5-5-5-5----------------------9--9-10-10|

e|----------------------------------------|
B|----------------------------------------|
G|---------9-9-9-9-11---------------------|
D|-7-7-7-7-9-9-9-9-11----------11----12---|
A|-7-7-7-7-7-7-7-7--9----------11----12---|
E|-5-5-5-5----------------------9----10---|

VERSE

e|-------------------------------------------------------->
B|-------------------------------------------------------->
G|-----------------9-9-9-9-9-9-9-9-11-11-11-11-11-11-11-11>
D|-7-7-7-7-7-7-7-7-9-9-9-9-9-9-9-9-11-11-11-11-11-11-11-11>
A|-7-7-7-7-7-7-7-7-7-7-7-7-7-7-7-7--9--9--9--9--9--9--9--9>
E|-5-5-5-5-5-5-5-5---------------------------------------->

e------------------------|
B------------------------|
G------------------------|
D-11-11-11-11-12-12-12-12|
A-11-11-11-11-12-12-12-12|
E--9--9--9--9-10-10-10-10|

e|-------------------------------------------------------->
B|-------------------------------------------------------->
G|-----------------9-9-9-9-9-9-9-9-11-11-11-11-11-11-11-11>
D|-7-7-7-7-7-7-7-7-9-9-9-9-9-9-9-9-11-11-11-11-11-11-11-11>
A|-7-7-7-7-7-7-7-7-7-7-7-7-7-7-7-7--9--9--9--9--9--9--9--9>
E|-5-5-5-5-5-5-5-5---------------------------------------->

e------------------------|
B------------------------|
G------------------------|
D-11-11-11-11-12-12-12-12|
A-11-11-11-11-12-12-12-12|
E--9--9--9--9-10-10-10-10|

e|-------------------------------------------------------->
B|-------------------------------------------------------->
G|-----------------9-9-9-9-9-9-9-9-11-11-11-11-11-11-11-11>
D|-7-7-7-7-7-7-7-7-9-9-9-9-9-9-9-9-11-11-11-11-11-11-11-11>
A|-7-7-7-7-7-7-7-7-7-7-7-7-7-7-7-7--9--9--9--9--9--9--9--9>
E|-5-5-5-5-5-5-5-5---------------------------------------->

e------------------------|
B------------------------|
G------------------------|
D-11-11-11-11-12-12-12-12|
A-11-11-11-11-12-12-12-12|
E--9--9--9--9-10-10-10-10|

e|-------------------------------------------------------->
B|-------------------------------------------------------->
G|-----------------9-9-9-9-9-9-9-9-11-11-11-11-11-11-11-11>
D|-7-7-7-7-7-7-7-7-9-9-9-9-9-9-9-9-11-11-11-11-11-11-11-11>
A|-7-7-7-7-7-7-7-7-7-7-7-7-7-7-7-7--9--9--9--9--9--9--9--9>
E|-5-5-5-5-5-5-5-5---------------------------------------->

e------------------------|
B------------------------|
G------------------------|
D-11-11-11-11-12-12-12-12|
A-11-11-11-11-12-12-12-12|
E--9--9--9--9-10-10-10-10|

CHORUS

e-------------------------------------------->
B-------------------------------------------->
G---------------------------------11-11-11-11>
D-9-9-9-9-11-11-11-11-12-12-12-12-11-11-11-11>
A-9-9-9-9-11-11-11-11-12-12-12-12--9--9--9--9>
E-7-7-7-7--9--9--9--9-10-10-10-10------------>

e---------------------------------------->
B---------------------------------------->
G---------------------------------9-9-9-9>
D-9-9-9-9-11-11-11-11-12-12-12-12-9-9-9-9>
A-9-9-9-9-11-11-11-11-12-12-12-12-7-7-7-7>
E-7-7-7-7--9--9--9--9-10-10-10-10-------->

e-------------------------------------------->
B-------------------------------------------->
G-------------11-11-11-11-9-9-9-9-14-14-14-14>
D-12-12-12-12-11-11-11-11-9-9-9-9-14-14-14-14>
A-12-12-12-12--9--9--9--9-7-7-7-7-12-12-12-12>
E-10-10-10-10-------------------------------->

e-------------------------------------------->
B-------------------------------------------->
G-------------11-11-11-11-------------------->
D-12-12-12-12-11-11-11-11-11-11-11-11-7-7-7-7>
A-12-12-12-12--9--9--9--9-11-11-11-11-7-7-7-7>
E-10-10-10-10--------------9--9--9--9-5-5-5-5>

PostChorus

e-------------------------------|
B-------------------------------|
G-------------------------------|
D-7-7-7-7-7-7-7-7-7-7-7-7-7--7--|
A-7-7-7-7-7-7-7-7-7-7-7-7-7--7--|
E-5-5-5-5-5-5-5-5-5-5-5-5-5--5--|

Bridge

e---------------------------------------------------------------->
B---------------------------------------------------------------->
G-----------------5-5-5-5-5-5-5-5-------------------------------->
D-7-7-7-7-7-7-7-7-5-5-5-5-5-5-5-5-2-2-2-2-2-2-2-2-5-5-5-5-5-5-5-5>
A-7-7-7-7-7-7-7-7-3-3-3-3-3-3-3-3-2-2-2-2-2-2-2-2-5-5-5-5-5-5-5-5>
E-5-5-5-5-5-5-5-5-----------------0-0-0-0-0-0-0-0-3-3-3-3-3-3-3-3>

e---------------------------------------------------------------->
B---------------------------------------------------------------->
G-----------------4-4-4-4-4-4-4-4-5-5-5-5-5-5-5-5-7-7-7-7-7-7-7-7>
D-5-5-5-5-5-5-5-5-4-4-4-4-4-4-4-4-5-5-5-5-5-5-5-5-7-7-7-7-7-7-7-7>
A-5-5-5-5-5-5-5-5-2-2-2-2-2-2-2-2-3-3-3-3-3-3-3-3-5-5-5-5-5-5-5-5>
E-3-3-3-3-3-3-3-3------------------------------------------------>

e------------------------------------------------------------------------>
B------------------------------------------------------------------------>
G-5-5-5-5-5-5-5-5-9-9-9-9-9-9-9-9-7-7-7-7-7-7-7-7-12-12-12-12-12-12-12-12>
D-5-5-5-5-5-5-5-5-9-9-9-9-9-9-9-9-7-7-7-7-7-7-7-7-12-12-12-12-12-12-12-12>
A-3-3-3-3-3-3-3-3-7-7-7-7-7-7-7-7-5-5-5-5-5-5-5-5-10-10-10-10-10-10-10-10>
E------------------------------------------------------------------------>

e-------------------------------------------------------------------------------->
B-------------------------------------------------------------------------------->
G-12-12-12-12-12-12-12-12-10-10-10-10-10-10-10-10-9-9-9-9-9-9-9-9-9-9-9-9-9-9-9-9>
D-12-12-12-12-12-12-12-12-10-10-10-10-10-10-10-10-9-9-9-9-9-9-9-9-9-9-9-9-9-9-9-9>
A-10-10-10-10-10-10-10-10--8--8--8--8--8--8--8--8-7-7-7-7-7-7-7-7-7-7-7-7-7-7-7-7>
E-------------------------------------------------------------------------------->

e-----------------------------------------------------------------|
B-----------------------------------------------------------------|
G-9-9-9-9-9-9-9-9-9-9-9-9-9-9-9-9-9-9-9-9-9-9-9-9--------9--------|
D-9-9-9-9-9-9-9-9-9-9-9-9-9-9-9-9-9-9-9-9-9-9-9-9--------9--------|
A-7-7-7-7-7-7-7-7-7-7-7-7-7-7-7-7-7-7-7-7-7-7-7-7--------7--------|
E-----------------------------------------------------------------|

Pre Verse

e|----------------------------------------|
B|----------------------------------------|
G|---------9-9-9-9-11-11-11-11------------|
D|-7-7-7-7-9-9-9-9-11-11-11-11-11-11-12-12|
A|-7-7-7-7-7-7-7-7--9--9--9--9-11-11-12-12|
E|-5-5-5-5----------------------9--9-10-10|

e|----------------------------------------|
B|----------------------------------------|
G|---------9-9-9-9-11-11-11-11------------|
D|-7-7-7-7-9-9-9-9-11-11-11-11-11-11-12-12|
A|-7-7-7-7-7-7-7-7--9--9--9--9-11-11-12-12|
E|-5-5-5-5----------------------9--9-10-10|

e|----------------------------------------|
B|----------------------------------------|
G|---------9-9-9-9-11-11-11-11------------|
D|-7-7-7-7-9-9-9-9-11-11-11-11-11-11-12-12|
A|-7-7-7-7-7-7-7-7--9--9--9--9-11-11-12-12|
E|-5-5-5-5----------------------9--9-10-10|

e|----------------------------------------|
B|----------------------------------------|
G|---------9-9-9-9-11---------------------|
D|-7-7-7-7-9-9-9-9-11----------11----12---|
A|-7-7-7-7-7-7-7-7--9----------11----12---|
E|-5-5-5-5----------------------9----10---|

VERSE

e|-------------------------------------------------------->
B|-------------------------------------------------------->
G|-----------------9-9-9-9-9-9-9-9-11-11-11-11-11-11-11-11>
D|-7-7-7-7-7-7-7-7-9-9-9-9-9-9-9-9-11-11-11-11-11-11-11-11>
A|-7-7-7-7-7-7-7-7-7-7-7-7-7-7-7-7--9--9--9--9--9--9--9--9>
E|-5-5-5-5-5-5-5-5---------------------------------------->

e------------------------|
B------------------------|
G------------------------|
D-11-11-11-11-12-12-12-12|
A-11-11-11-11-12-12-12-12|
E--9--9--9--9-10-10-10-10|

e|-------------------------------------------------------->
B|-------------------------------------------------------->
G|-----------------9-9-9-9-9-9-9-9-11-11-11-11-11-11-11-11>
D|-7-7-7-7-7-7-7-7-9-9-9-9-9-9-9-9-11-11-11-11-11-11-11-11>
A|-7-7-7-7-7-7-7-7-7-7-7-7-7-7-7-7--9--9--9--9--9--9--9--9>
E|-5-5-5-5-5-5-5-5---------------------------------------->

e------------------------|
B------------------------|
G------------------------|
D-11-11-11-11-12-12-12-12|
A-11-11-11-11-12-12-12-12|
E--9--9--9--9-10-10-10-10|

e|-------------------------------------------------------->
B|-------------------------------------------------------->
G|-----------------9-9-9-9-9-9-9-9-11-11-11-11-11-11-11-11>
D|-7-7-7-7-7-7-7-7-9-9-9-9-9-9-9-9-11-11-11-11-11-11-11-11>
A|-7-7-7-7-7-7-7-7-7-7-7-7-7-7-7-7--9--9--9--9--9--9--9--9>
E|-5-5-5-5-5-5-5-5---------------------------------------->

e------------------------|
B------------------------|
G------------------------|
D-11-11-11-11-12-12-12-12|
A-11-11-11-11-12-12-12-12|
E--9--9--9--9-10-10-10-10|

e|-------------------------------------------------------->
B|-------------------------------------------------------->
G|-----------------9-9-9-9-9-9-9-9-11-11-11-11-11-11-11-11>
D|-7-7-7-7-7-7-7-7-9-9-9-9-9-9-9-9-11-11-11-11-11-11-11-11>
A|-7-7-7-7-7-7-7-7-7-7-7-7-7-7-7-7--9--9--9--9--9--9--9--9>
E|-5-5-5-5-5-5-5-5---------------------------------------->

e------------------------|
B------------------------|
G------------------------|
D-11-11-11-11-12-12-12-12|
A-11-11-11-11-12-12-12-12|
E--9--9--9--9-10-10-10-10|

CHORUS

e-------------------------------------------->
B-------------------------------------------->
G---------------------------------11-11-11-11>
D-9-9-9-9-11-11-11-11-12-12-12-12-11-11-11-11>
A-9-9-9-9-11-11-11-11-12-12-12-12--9--9--9--9>
E-7-7-7-7--9--9--9--9-10-10-10-10------------>

e---------------------------------------->
B---------------------------------------->
G---------------------------------9-9-9-9>
D-9-9-9-9-11-11-11-11-12-12-12-12-9-9-9-9>
A-9-9-9-9-11-11-11-11-12-12-12-12-7-7-7-7>
E-7-7-7-7--9--9--9--9-10-10-10-10-------->

e-------------------------------------------->
B-------------------------------------------->
G-------------11-11-11-11-9-9-9-9-14-14-14-14>
D-12-12-12-12-11-11-11-11-9-9-9-9-14-14-14-14>
A-12-12-12-12--9--9--9--9-7-7-7-7-12-12-12-12>
E-10-10-10-10-------------------------------->

e-------------------------------------------->
B-------------------------------------------->
G-------------11-11-11-11-------------------->
D-12-12-12-12-11-11-11-11-11-11-11-11-7-7-7-7>
A-12-12-12-12--9--9--9--9-11-11-11-11-7-7-7-7>
E-10-10-10-10--------------9--9--9--9-5-5-5-5>

PostChorus

e-------------------------------|
B-------------------------------|
G-------------------------------|
D-7-7-7-7-7-7-7-7-7-7-7-7-7--7--|
A-7-7-7-7-7-7-7-7-7-7-7-7-7--7--|
E-5-5-5-5-5-5-5-5-5-5-5-5-5--5--|

END
Tap to rate this tab
# A B C D E F G H I J K L M N O P Q R S T U V W X Y Z