Song name
# A B C D E F G H I J K L M N O P Q R S T U V W X Y Z

Misc Unsigned Bands - Dagon - Waste tab

Dagon - Waste


INTRO
e--------------------------------------------|
b--------------------------------------------|
g--------------------------------------------|
d-------11-------12-11--------11-------12-11-|
a-------9--------10-9---------9--------10-9--|
d-0000-----0000---------0000-----0000--------|

e--------------------------------------------|
b--------------------------------------------|
g--------------------------------------------|
d-------9--------9-10---------9--------9-10--|
a-------7--------7-8----------7--------7-8---|
d-0000-----0000---------0000-----0000--------|


RIFF 1
e--------------------------------------------|
b--------------------------------------------|
g--------------------------------------------|
d--------------------------------------------|
a--3333-2222-1111-0000-3333-2222-1111-0000---|
d--3333-2222-1111-0000-3333-2222-1111-0000---|
                                                           x2

e--------------------------------------------|
b--------------------------------------------|
g--------------------------------------------|
d--------------------------------------------|
a--5555-4444-3333-2222-5555-4444-3333-2222---|
d--5555-4444-3333-2222-5555-4444-3333-2222---|


RIFF 2
e------------------------------------------------------------------|
b------------------------------------------------------------------|
g------------------------------------------------------------------|
d------------------------------------------------------------------|
a--0000-11-0000-33-0000-55-0000-11-0000-33-0000-55-0000-11-0000-33-|
d--0000-11-0000-33-0000-55-0000-11-0000-33-0000-55-0000-11-0000-33-|


RIFF 3
e-----------------------------------------------------------------------|
b-----------------------------------------------------------------------|
g-----------------------------------------------------------------------|
d-----------------------------------------------------------------------|
a--01010101-321--01010101-321--01010101-321--01010101-321--01010101-321-|
d--01010101-321--01010101-321--01010101-321--01010101-321--01010101-321-|


RIFF 2
e------------------------------------------------------------------|
b------------------------------------------------------------------|
g------------------------------------------------------------------|
d------------------------------------------------------------------|
a--0000-11-0000-33-0000-55-0000-11-0000-33-0000-55-0000-11-0000-33-|
d--0000-11-0000-33-0000-55-0000-11-0000-33-0000-55-0000-11-0000-33-|


RIFF 3
e-----------------------------------------------------------------------|
b-----------------------------------------------------------------------|
g-----------------------------------------------------------------------|
d-----------------------------------------------------------------------|
a--01010101-321--01010101-321--01010101-321--01010101-321--01010101-321-|
d--01010101-321--01010101-321--01010101-321--01010101-321--01010101-321-|


RIFF 2
e------------------------------------------------------------------|
b------------------------------------------------------------------|
g------------------------------------------------------------------|
d------------------------------------------------------------------|
a--0000-11-0000-33-0000-55-0000-11-0000-33-0000-55-0000-11-0000-33-|
d--0000-11-0000-33-0000-55-0000-11-0000-33-0000-55-0000-11-0000-33-|


RIFF 1
e--------------------------------------------|
b--------------------------------------------|
g--------------------------------------------|
d--------------------------------------------|
a--3333-2222-1111-0000-3333-2222-1111-0000---|
d--3333-2222-1111-0000-3333-2222-1111-0000---|


e--------------------------------------------|
b--------------------------------------------|
g--------------------------------------------|
d--------------------------------------------|
a--5555-4444-3333-2222-5555-4444-3333-2222---|
d--5555-4444-3333-2222-5555-4444-3333-2222---|


RIFF 2
e------------------------------------------------------------------|
b------------------------------------------------------------------|
g------------------------------------------------------------------|
d------------------------------------------------------------------|
a--0000-11-0000-33-0000-55-0000-11-0000-33-0000-55-0000-11-0000-33-|
d--0000-11-0000-33-0000-55-0000-11-0000-33-0000-55-0000-11-0000-33-|


OUTRO
e--------------------------------------------|
b--------------------------------------------|
g--------------------------------------------|
d--------------------------------------------|
a--3333-2222-1111-0000-3333-2222-1111-0000---|
d--3333-2222-1111-0000-3333-2222-1111-0000---|


e--------------------------------------------|
b--------------------------------------------|
g--------------------------------------------|
d--------------------------------------------|
a--5555-4444-3333-2222-5555-4444-3333-2222---|
d--5555-4444-3333-2222-5555-4444-3333-2222---|
Tap to rate this tab
 
# A B C D E F G H I J K L M N O P Q R S T U V W X Y Z