Song name
# A B C D E F G H I J K L M N O P Q R S T U V W X Y Z

Misc Unsigned Bands - Kayden Courtright - Slow Dayz At The River tab

Slow Dayz at the River
Written By: Kayden Courtright


INTRO FIGURE

    E --------------------------------|
    B --------------------------------|
    G ------9------9-----9-----9------|
    D ------7------7-----7-----7------|
    A --7------7------7-----7---------|
    E --5------5------5-----5---------|    x2 ( Let ring at end of 2nd )


VERSE 1

    E --------------------------|
    B --------------------------|
    G --------------------------|
    D --------------------------|
    A --9-9-8-9-9-8-9-8---------|
    E --------------------------|  x4

    E -------------------------------------|
    B -------------------------------------|
    G -------------------------------------|
    D -------------------------------------|
    A --10-10-9-10-10-9-10-9(/)------------|
    E -------------------------------------|  x4

    E -------------------------------------------------------------|
    G -----------2--3----------------------------------------------|
    D --2--------2--3-------2-2-2-3-2-x---2-2-2-3-2-3-2-x----------|
    A --2--------0--1---2---2-2-2-3-2-x---2-2-2-3-2-3-2-x----------|
    E ------------------0---0-0-0-0-0-x---0-0-0-0-0-0-0-x----------|

    E ----------------------------------------|
    B ----------------------------------------|
    G-----------------------------------------|
    D --2-2-2-3-2-x--2-2-2-3-2-3-2-x----------|
    A --2-2-2-3-2-x--2-2-2-3-2-3-2-x----------|
    E --0-0-0-0-0-x--0-0-0-0-0-0-0-x----------|

    E -------------------------------------------------------------|
    G -----------2--3----------------------------------------------|
    D --2--------2--3------2-2-2-3-2-x--2-2-2-3-2-3-2-x------------|
    A --2--------0--1---2--2-2-2-3-2-x--2-2-2-3-2-3-2-x------------|
    E ------------------0--0-0-0-0-0-x--0-0-0-0-0-0-0-x------------|

Ż Continue on page 2 Ż
ŻŻŻŻŻŻŻŻŻŻŻŻŻŻŻŻŻŻŻŻŻŻŻŻŻŻŻŻŻŻŻŻŻŻŻŻŻŻŻŻŻŻŻŻŻŻŻŻŻŻŻŻŻŻŻŻŻŻŻŻŻŻŻŻŻŻŻŻŻŻ

    E ----------------------------------------|
    B ----------------------------------------|
    G-----------------------------------------|
    D --2-2-2-3-2-x--2-2-2-3-2-3-2-x----------|
    A --2-2-2-3-2-x--2-2-2-3-2-3-2-x----------|
    E --0-0-0-0-0-x--0-0-0-0-0-0-0-x----------|
Tap to rate this tab
 
# A B C D E F G H I J K L M N O P Q R S T U V W X Y Z