Song name
# A B C D E F G H I J K L M N O P Q R S T U V W X Y Z

Misc Unsigned Bands - Freefall - Power Chords Mania tab

Tuning:standard
tab by: webbster87

guitar 1 riff A
e|-------------------------------]
B|-------------------------------]
G|-------------------------------]
D|9--9-9--7--7-7--5--5-5--4-4-4-2]
A|9-9-9---7-7-7---5-5-5---4-4-4-2]
E|7-------5-------3-------2-2-2-0]

guitar 2 background riff A
e|9-7-9-7-5-7-5-7-3-5-3-5-2-2-2-0]
B|-------------------------------]
G|-------------------------------]
D|-------------------------------]
A|-------------------------------]
E|-------------------------------]

guitar 1 riff B
e|--------------------------------------]
B|--------------------------------------]
G|--------------------------------------]
D|12-11-9-9-9--12-11-7-7-7--12-11-5-5-5-]
A|12-11-9--9-9-12-11-7--7-7-12-11-5--5-5]
E|10-9--7------10-9--5------10-9--3-----]

guitar 2 background riff B
e|12-11-9------12-11-7------12-11-5-----]
B|12-11-9------12-11-7------12-11-5-----]
G|--------------------------------------]
D|--------------------------------------]
A|--------------------------------------]
E|--------------------------------------]

outro 
e|--------------------------------------]
B|--------------------------------------]
G|--------------------------------------]
D|11-12-11-4-2~-----9---7---5---4--2~---]
A|11-12-11-4-2~---9---7---5----4--2~----]
E|9--10-9--2-0~-7---5---3-----2--0~-----]

the end (pretty simple song of power chords)!!!!!
Tap to rate this tab
# A B C D E F G H I J K L M N O P Q R S T U V W X Y Z