Song name
# A B C D E F G H I J K L M N O P Q R S T U V W X Y Z

Misc Unsigned Bands - The Clevs - Blue Fog tab

Blue Fog by The Clevs

this is a amatuer song that was written by the one and only clevs. well u don't know it 
but in 5 years it'll be a rock anthem with a kick ass solo.


gt 1 distortion (standard)
gt 2 heavy overdrive (1/2 step down)
gt 3 clean w/ sustain (drop d)


intro/verse (gt1 play over and over)
e-------------------|-----------------------|
b-------------------|-----------------------|
g-------------------|-----------------------|
d-2------2----7b----|-2------2----7-8----2--|
a-2--5-7-2--5-5b-7--|-2--5-7-2--5-5-6-7--2--|
e-0--3-5-0--3----5--|-0--3-5-0--3-----5--0--|


gt 2 riff 1
e------------|-9-------------9-------------------|
b------------|--10-9----------10-9-------12/13b--|
g------------|-------10-9-x-x------10-9----------|
d-2--7-7-9-2-|-----------------------------------|
a-2--5-5-7-2-|-----------------------------------|
e-0--------0-|-----------------------------------|

gt 3 riff 1 play during solo and whole song
e-1-2-0/0--0-|-1-2-0/0--|
b-1-2-0/0--3-|-1-2-0/0--|
g-1-2-0/0--0-|-1-2-0/0--|
d-1-1-0/0--0-|-1-1-0/0--|
a-3-0-2/3--1-|-3-0-2/3--|
d-1---3/4----|-1---3/4--|

solo gt 2

e-12h13-x-x-7----------------------------------------------14----|
b-------------9----------------------------15-x-16/12-x-12----15-|
g---------------7--------------12B-13-x-14-----------------------|
d-----------------9h10/12b-x-x-----------------------------------|
a----------------------------------------------------------------|
e----------------------------------------------------------------|

e-16/8-9/10--------15p16p0-----------------------9/12-12-x-------|
b------7/8--8/16-x---------12p0----------------8-----------12p0--|
g-------------------------------12p0---------7-------------------|
d------------------------------------12bp0-9---------------------|
a----------------------------------------------------------------|
e----------------------------------------------------------------|


e---------------------------12bp0-3-------------------------12p0-|
b----------------------12p0---------4------------------12p0------|
g-----------------12p0----------------7/8---------12p0-----------|
d-7b-----x-x-12p0-------------------------10h11p0----------------|
a----------------------------------------------------------------|
e----------------------------------------------------------------|

chorus gt 3
e------------------------|
b------------------------|
g------------------------|
d-2-x-7b-5-----------5p0-|
a-2-x----5-------5p0-----|
d-0------5-5p0-----------|


chorus gt 1 ( clean strum )
e-1---0---0--0-|-0---5-x-8-|
b-1---3---2--2-|-0---5-x-8-|
g-1---0---0--2-|-0---5-x-8-|
d-1---0---2--2-|-2---5-x-8-|
a-3---1---2--0-|-2---3-x-6-|
e-1-------0--0-|-0---3-x-6-|
Tap to rate this tab
# A B C D E F G H I J K L M N O P Q R S T U V W X Y Z