Guitaretab - guitar tabs
Song name
# A B C D E F G H I J K L M N O P Q R S T U V W X Y Z

Misc Unsigned Bands - The Lecheemoes - Lightning Pony tab

          Lightning Pony



Intro
|--------------------------------------- |
|--------------------------------------- |
|--------------------------------------- |
|--------------------------------------- |
|2---12-12-12-12-12-12-12-12-12-12-12-12 |
|0---12-12-12-12-12-12-12-12-12-12-12-12 |
     -  -  -  -  -  -  -  -  -  -  -  - 

|-------------------------------------------| 
|-------------------------------------------| 
|-------------------------------------------|
|9-------9---9-------7----------------9h /19|   
|79-9-9-7-9-7-9-9-9-0----------------------|   
|--7-7-7---7---7-7-7------------------------| 
   - - -   -   - - -  
Bridge
|--------------------------------|
|--------------------------------|
|--------------------------------|
|19-19-17-19-19-17-15-15-17-15-17|
|--------------------------------|
|--------------------------------|

|-----------------------------------------------------------------------|
|-----------------------------------------------------------------------|
|-----------------------------------------------------------------------|
|15-13-13-15-13-15-13-11-13-11-13-9-10-9-10-9-5-7-5-5-7-3-7-5-9-4-5-2-4-| 
|-----------------------------------------------------------------------|
|-----------------------------------------------------------------------|
              Chorus

              Guitar 1=====================
|-----------||----------------------------|         
|-----------||----------------------------|
|-----------||----------------------------|
|- /19 \7~ ~||9-----7-----9------7-----9-9| 
|-----------||--7-9---5-7---7-9---5-7--7-7|  (x4)
|-----------||----------------------------|


===============     Guitar 2=========================================  
|-------------|     |--------------------|    |---------------------|
|-------------|     |--------------------|    |---------------------|
|-------------|     |5---3---5---3----7-7|    |7-5----3----5----3--|
|97---5--75-|     |-7-55-37-55-3-5-5|    |5---7-5--5----7----5|
|7--9-7--797| (x4)|--------------------|(x4)|---------------------|(x4)
|-------------|     |--------------------|    |---------------------|

Verse 1

Guitar 1====================================================
|--------------------------|     |--------------------------|
|--------------------------|     |--------------------------|
|--------------------------|     |--------------------------|
| 9-9-9-9-9-7-7-12--12-12-9|     |--------------------------|
| 7-7-7-7-7-5-5-10--10-10-7| (x2)| 9-9-9-9-9-7-7-12--12-12-9| (x2)
|--------------------------|     | 7-7-7-7-7-5-5-10--10-10-7|
[ Tab from: http://www.guitaretab.com/m/misc-unsigned-bands/86091.html ]
============================
|--------------------------|     
|--------------------------|     
|--------------------------|   
| 9-9-9-9-9-7-7-12--12-12-9|    
| 7-7-7-7-7-5-5-10--10-10-7| (x2)
|--------------------------|     

Guitar 2 ==============================================================
|---------------------------------------------------------------------|
|---------------------------------------------------------------------|
|---------------------------------------------------------------------|
|----------9-9-7~ 10-9-7------------9-9-7-9-7-5------------5-7-9-7-5--|
|7-7-7-7-7---------------7-7-7-7-7--------------5-5-5-5-5------------7|
|---------------------------------------------------------------------|

=========================
|-----------------------|    
|-----------------------|
|-----------------------|
|------------5-7-9-7-5-2|
|5-5-5-5-5-------------0|
|-----------------------|  

Verse 2

Guitar 1========================
|-------------------------------|       
|-------------------------------|
|-------------------------------|
| 9--9-9--9--9-9--9--9-9-12-10-9|
| 7--7-7--7--7-7--7--7-7-12-10-9| (x4)
|-------------------------------|   
     - -     - -     - -


Guitar 2===========================
|--------------------------------|
|--------------------------------|
|------------------------15-13-12|
|--------------------------------|
|--------------------------------|(x4)
|--------------------------------|


Verse 3

Both guitars====================================
|----------------------------------------------|
|----------------------------------------------|
|----------------------------------------------|
| 9-9-12-10-9--9-9-10-9-7--9-9-9-7-5--7-7-4-5-7|
| 7-7----------7-7---------7-7--------5-5------|(x2)
|--------------------------------------------- |

=====================================================
|---------------------------------------------------| 
|---------------------------------------------------|
|---------------------------------------------------|
| 9-9-9-9-9-9-9-9--12-10-9-10-9-7-9-7-5-7-5-4-------| 
| 7-7-7-7-7-7-7-7-----------------------------5-/14-|(x2)
|---------------------------------------------------| 

Just guitar 1===============
|--------------------------|
|--------------------------|
|--------------------9---- |
|-------9------------x--x--|
|-------7------------7--x--|
|--------------------------|


Chorus
======================
|----------------|
|----------------|
|----------------|
|97----5--7-5--|
|7--9-7---7-9-7| (x4)
|----------------|



The lecheemoes rule!!!!!!!!

Related for The Lecheemoes - Lightning Pony tab