Song name
# A B C D E F G H I J K L M N O P Q R S T U V W X Y Z

Misc Unsigned Bands - Wite Boie - Just Some Notes tab

i have no idea, but what the heck. ~wite boie

|---------------------------------------------------|
|---------------------------------------------------|
|---------------------------------------------------|
|----2-0------2-0----0----2-0-----------------------| X 2
|---------2-0------2-------------2-0----------------|
|---------------------------------------------------|


|-----------------------------------------------------|
|-----------------------------------------------------|
|-----------------------------------------------------|
|------------3--3-4-------------------5--4------------| X 3
|---0000-----------------0000-------------------------|
|-----------------------------------------------------|




|---4-4-4-4-0-0-0-0-4-4-4-0----------------------------|
|---------------------------4------------------- |
|------------------------------------------------------|
|------------------------------------------------------| X 2
|------------------------------------------------------| 
|------------------------------------------------------|
Tap to rate this tab
# A B C D E F G H I J K L M N O P Q R S T U V W X Y Z