Song name
# A B C D E F G H I J K L M N O P Q R S T U V W X Y Z

Misc Unsigned Bands - The Deadrats - Sweet Sixteen tab

Help us improve GuitareTab! Take a short survey!
Intro:
E|-----------------------------------------------------------------|
B|-----------------------------------------------------------------|
G|-----------------------------------------------------------------|
D|-----------------------------------------------------------------|
A|33333333------------------------33333333-------------------------|
E|--------011111110555555503333333--------011111110555555503333333-|

Verse - Guitar 1:
E|-----------------------------------------------------------------|
B|-----------------------------------------------------------------|
G|-----------------------------------------------------------------|
D|-----------------------------------------------------------------|
A|33333333------------------------33333333-------------------------|
E|--------011111110555555503333333--------011111110555555503333333-|

Verse - Guitar 2:
E|----------------------------------------------------------------|
B|----------------------------------------------------------------|
G|5-------------------------------5-------------------------------|
D|5-------3-------7-------5-------5-------3-------7-------5-------|
A|3-------3-------7-------5-------3-------3-------7-------5-------|
E|--------1-------5-------3---------------1-------5-------3-------|

Chorus:
E|----------------------------------------------------------------|
B|----------------------------------------------------------------|
G|5555555555555555----------------5555555555555555----------------|
D|5555555555555555333333337777555555555555555555553333333377775555
A|3333333333333333333333337777555533333333333333333333333377775555
E|----------------1111111155553333----------------1111111155553333

Song Order:
Intro x1
Verse x2
Chorus x2
Intro x1
Verse x2
Chorus x2
Intro x3
(there's a solo in the three intros i may add that later until then just do something)
Chorus x2

www.myspace.com/wearethedeadrats/
Related for The Deadrats - Sweet Sixteen tab