Song name
# A B C D E F G H I J K L M N O P Q R S T U V W X Y Z

Misc Unsigned Bands - 4th Degree Burn - Need tab

Need - 4th Degree Burn
Tuning: Standard

Intro/Chorus

   V------|            V------|
|-------10--9h10p9----------10--9h10p9-------------|
|o----12-----------12-----12-----------12---------o|
|---11-------------------9-------------------------|
|--9-------------------11-------------------9--9---|
|o------------------------------------------9--9--o|
|-------------------------------------------7--7---|

Verse 

|--------------------------0----------|
|o-------3---2---3---2-----0--2---2--o|
|------4---4---4---4-------0--3---3---|
|----4---------------------2--2---2---|
|o-2---------------------2----x---x--o|
|----------------------0------2-2-2---|

Solo 1
        ~~~~~~~~~    
|---------------------------10h12-12b(14)pb(12)-12--15-14-12-17-15-14---|
|-10--12----------12\----12---------------------------------------------|
|-----------------------------------------------------------------------|
|-----------------------------------------------------------------------|
|-----------------------------------------------------------------------|
|-----------------------------------------------------------------------|

           ~~~~~~~~~                      *----------    ~~      ~~~~~
|-17-17b(19)------------------------------------------------------------|
|----------------------------------------------12-----------------------|
|---------------------14-12\11-11\9-7---9b(11)----(11)pb9---7-----------|
|-------------------------------------------------------------8h9-------|
|-----------------------------------------------------------------------|
|-----------------------------------------------------------------------|
*keep note bent

                                            ~~~~~~~~~~~~~~~~
|---10p9p7--5h7p5---------------------------------------------|
|-7---------------7p5-----------------------------------------|
|---------------------7-6-4--0--(0)wd-wu----------------------|
|-----------------------------------------h4------------------|
|-------------------------------------------------------------|
|-------------------------------------------------------------|


Song Order:

Intro (8x)
Verse (8x)
Chorus (4x)
Verse (8x)
Chorus (4x)
Solo 1
Verse (7x)
Chorus (4x)
Solo 2*

*I'm still working on solo 2, but at least you got this much
Tap to rate this tab
# A B C D E F G H I J K L M N O P Q R S T U V W X Y Z