Song name
# A B C D E F G H I J K L M N O P Q R S T U V W X Y Z

Misc Unsigned Bands - Too Late The Hero - Human Tragedy tab

Help us improve GuitareTab! Take a short survey!
slipknot_lo31@yahoo.com
1st tab ever........09226869929
Intro
---------------------------|
---------------------------|
---------------------------|
---------------------------|
--4-5-7--4---2x------------|
--2-3-5--2-----------------|

---------------------------|
---------------------------|
------7--------------------|
--9-5-7-7------------------|
--9-5-5-7--2x--------------|
--7-3---5------------------|

---------------------------|
---------------------------|
--4-4-4-4-4-4-4-4----------|
--x-x-x-x-x-x-x-x----------|
--2-2-2-2-2-2-2-2----------|
---------------------------|

---------------------------|
---------------------------|
-----7-7-------------------|
--9--7-7---7-xxxxxx-5-7-9--|
--9--5-5---7-xxxxxx-5-7-9--|
--7--------5-xxxxxx-3-5-7--|
Related for Too Late The Hero - Human Tragedy tab